  0
SECTION
  2
HEADER
  9
$ACADVER
  1
AC1015
  9
$ACADMAINTVER
 70
     6
  9
$DWGCODEPAGE
  3
ANSI_1254
  9
$INSBASE
 10
0.0
 20
0.0
 30
0.0
  9
$EXTMIN
 10
0.0
 20
0.0
 30
0.0
  9
$EXTMAX
 10
279.4
 20
215.9
 30
0.0
  9
$LIMMIN
 10
0.0
 20
0.0
  9
$LIMMAX
 10
279.4
 20
215.9
  9
$ORTHOMODE
 70
     0
  9
$REGENMODE
 70
     1
  9
$FILLMODE
 70
     1
  9
$QTEXTMODE
 70
     0
  9
$MIRRTEXT
 70
     1
  9
$LTSCALE
 40
1.0
  9
$ATTMODE
 70
     1
  9
$TEXTSIZE
 40
3.5
  9
$TRACEWID
 40
1.0
  9
$TEXTSTYLE
  7
Standard
  9
$CLAYER
  8
0
  9
$CELTYPE
  6
ByLayer
  9
$CECOLOR
 62
   256
  9
$CELTSCALE
 40
1.0
  9
$DISPSILH
 70
     0
  9
$DIMSCALE
 40
1.0
  9
$DIMASZ
 40
3.5
  9
$DIMEXO
 40
1.0
  9
$DIMDLI
 40
3.75
  9
$DIMRND
 40
0.0
  9
$DIMDLE
 40
0.0
  9
$DIMEXE
 40
1.0
  9
$DIMTP
 40
0.0
  9
$DIMTM
 40
0.0
  9
$DIMTXT
 40
3.5
  9
$DIMCEN
 40
2.5
  9
$DIMTSZ
 40
0.0
  9
$DIMTOL
 70
     0
  9
$DIMLIM
 70
     0
  9
$DIMTIH
 70
     1
  9
$DIMTOH
 70
     1
  9
$DIMSE1
 70
     0
  9
$DIMSE2
 70
     0
  9
$DIMTAD
 70
     1
  9
$DIMZIN
 70
     0
  9
$DIMBLK
  1

  9
$DIMASO
 70
     1
  9
$DIMSHO
 70
     1
  9
$DIMPOST
  1

  9
$DIMAPOST
  1

  9
$DIMALT
 70
     0
  9
$DIMALTD
 70
     3
  9
$DIMALTF
 40
0.0393700787
  9
$DIMLFAC
 40
1.0
  9
$DIMTOFL
 70
     1
  9
$DIMTVP
 40
0.0
  9
$DIMTIX
 70
     0
  9
$DIMSOXD
 70
     0
  9
$DIMSAH
 70
     0
  9
$DIMBLK1
  1

  9
$DIMBLK2
  1

  9
$DIMSTYLE
  2
ISO-25
  9
$DIMCLRD
 70
     0
  9
$DIMCLRE
 70
     0
  9
$DIMCLRT
 70
     0
  9
$DIMTFAC
 40
1.0
  9
$DIMGAP
 40
1.524
  9
$DIMJUST
 70
     0
  9
$DIMSD1
 70
     0
  9
$DIMSD2
 70
     0
  9
$DIMTOLJ
 70
     0
  9
$DIMTZIN
 70
     0
  9
$DIMALTZ
 70
     0
  9
$DIMALTTZ
 70
     0
  9
$DIMUPT
 70
     0
  9
$DIMDEC
 70
     2
  9
$DIMTDEC
 70
     2
  9
$DIMALTU
 70
     2
  9
$DIMALTTD
 70
     3
  9
$DIMTXSTY
  7
Standard
  9
$DIMAUNIT
 70
     0
  9
$DIMADEC
 70
     2
  9
$DIMALTRND
 40
0.0
  9
$DIMAZIN
 70
     0
  9
$DIMDSEP
 70
    44
  9
$DIMATFIT
 70
     3
  9
$DIMFRAC
 70
     0
  9
$DIMLDRBLK
  1

  9
$DIMLUNIT
 70
     2
  9
$DIMLWD
 70
    -2
  9
$DIMLWE
 70
    -2
  9
$DIMTMOVE
 70
     0
  9
$LUNITS
 70
     2
  9
$LUPREC
 70
     2
  9
$SKETCHINC
 40
1.0
  9
$FILLETRAD
 40
10.0
  9
$AUNITS
 70
     0
  9
$AUPREC
 70
     2
  9
$MENU
  1
.
  9
$ELEVATION
 40
0.0
  9
$PELEVATION
 40
0.0
  9
$THICKNESS
 40
0.0
  9
$LIMCHECK
 70
     0
  9
$CHAMFERA
 40
0.0
  9
$CHAMFERB
 40
0.0
  9
$CHAMFERC
 40
0.0
  9
$CHAMFERD
 40
0.0
  9
$SKPOLY
 70
     0
  9
$TDCREATE
 40
2458985.663651702
  9
$TDUCREATE
 40
2458985.538651702
  9
$TDUPDATE
 40
2458985.663652002
  9
$TDUUPDATE
 40
2458985.538652002
  9
$TDINDWG
 40
0.0000000116
  9
$TDUSRTIMER
 40
0.0000000116
  9
$USRTIMER
 70
     1
  9
$ANGBASE
 50
0.0
  9
$ANGDIR
 70
     0
  9
$PDMODE
 70
     0
  9
$PDSIZE
 40
-1.0
  9
$PLINEWID
 40
0.0
  9
$SPLFRAME
 70
     0
  9
$SPLINETYPE
 70
     6
  9
$SPLINESEGS
 70
     8
  9
$HANDSEED
  5
C2
  9
$SURFTAB1
 70
     6
  9
$SURFTAB2
 70
     6
  9
$SURFTYPE
 70
     6
  9
$SURFU
 70
     6
  9
$SURFV
 70
     6
  9
$UCSBASE
  2

  9
$UCSNAME
  2

  9
$UCSORG
 10
0.0
 20
0.0
 30
0.0
  9
$UCSXDIR
 10
1.0
 20
0.0
 30
0.0
  9
$UCSYDIR
 10
0.0
 20
1.0
 30
0.0
  9
$UCSORTHOREF
  2

  9
$UCSORTHOVIEW
 70
     0
  9
$UCSORGTOP
 10
0.0
 20
0.0
 30
0.0
  9
$UCSORGBOTTOM
 10
0.0
 20
0.0
 30
0.0
  9
$UCSORGLEFT
 10
0.0
 20
0.0
 30
0.0
  9
$UCSORGRIGHT
 10
0.0
 20
0.0
 30
0.0
  9
$UCSORGFRONT
 10
0.0
 20
0.0
 30
0.0
  9
$UCSORGBACK
 10
0.0
 20
0.0
 30
0.0
  9
$PUCSBASE
  2

  9
$PUCSNAME
  2

  9
$PUCSORG
 10
0.0
 20
0.0
 30
0.0
  9
$PUCSXDIR
 10
1.0
 20
0.0
 30
0.0
  9
$PUCSYDIR
 10
0.0
 20
1.0
 30
0.0
  9
$PUCSORTHOREF
  2

  9
$PUCSORTHOVIEW
 70
     0
  9
$PUCSORGTOP
 10
0.0
 20
0.0
 30
0.0
  9
$PUCSORGBOTTOM
 10
0.0
 20
0.0
 30
0.0
  9
$PUCSORGLEFT
 10
0.0
 20
0.0
 30
0.0
  9
$PUCSORGRIGHT
 10
0.0
 20
0.0
 30
0.0
  9
$PUCSORGFRONT
 10
0.0
 20
0.0
 30
0.0
  9
$PUCSORGBACK
 10
0.0
 20
0.0
 30
0.0
  9
$USERI1
 70
     0
  9
$USERI2
 70
     0
  9
$USERI3
 70
     0
  9
$USERI4
 70
     0
  9
$USERI5
 70
     0
  9
$USERR1
 40
0.0
  9
$USERR2
 40
0.0
  9
$USERR3
 40
0.0
  9
$USERR4
 40
0.0
  9
$USERR5
 40
0.0
  9
$WORLDVIEW
 70
     1
  9
$SHADEDGE
 70
     3
  9
$SHADEDIF
 70
    70
  9
$TILEMODE
 70
     1
  9
$MAXACTVP
 70
    64
  9
$PINSBASE
 10
0.0
 20
0.0
 30
0.0
  9
$PLIMCHECK
 70
     0
  9
$PEXTMIN
 10
1.0000000000E+20
 20
1.0000000000E+20
 30
1.0000000000E+20
  9
$PEXTMAX
 10
-1.0000000000E+20
 20
-1.0000000000E+20
 30
-1.0000000000E+20
  9
$PLIMMIN
 10
0.0
 20
0.0
  9
$PLIMMAX
 10
420.0
 20
297.0
  9
$UNITMODE
 70
     0
  9
$VISRETAIN
 70
     1
  9
$PLINEGEN
 70
     0
  9
$PSLTSCALE
 70
     1
  9
$TREEDEPTH
 70
  3020
  9
$CMLSTYLE
  2
Standard
  9
$CMLJUST
 70
     0
  9
$CMLSCALE
 40
20.0
  9
$PROXYGRAPHICS
 70
     1
  9
$MEASUREMENT
 70
     1
  9
$CELWEIGHT
370
    -1
  9
$ENDCAPS
280
     0
  9
$JOINSTYLE
280
     0
  9
$LWDISPLAY
290
     1
  9
$INSUNITS
 70
     4
  9
$HYPERLINKBASE
  1

  9
$STYLESHEET
  1

  9
$XEDIT
290
     1
  9
$CEPSNTYPE
380
     0
  9
$PSTYLEMODE
290
     1
  9
$FINGERPRINTGUID
  2
{bc4c27f8-4354-4578-826d-02cab88ee2b4}
  9
$VERSIONGUID
  2
{FAEB1C32-E019-11D5-929B-00C0DF256EC4}
  9
$EXTNAMES
290
     1
  9
$PSVPSCALE
 40
0.0
  9
$OLESTARTUP
290
     0
  0
ENDSEC
  0
SECTION
  2
CLASSES
  0
CLASS
  1
ACDBDICTIONARYWDFLT
  2
AcDbDictionaryWithDefault
  3
ObjectDBX Classes
 90
        0
280
     0
281
     0
  0
CLASS
  1
VISUALSTYLE
  2
AcDbVisualStyle
  3
ObjectDBX Classes
 90
     4095
280
     0
281
     0
  0
CLASS
  1
MATERIAL
  2
AcDbMaterial
  3
ObjectDBX Classes
 90
     1153
280
     0
281
     0
  0
CLASS
  1
SCALE
  2
AcDbScale
  3
ObjectDBX Classes
 90
     1153
280
     0
281
     0
  0
CLASS
  1
TABLESTYLE
  2
AcDbTableStyle
  3
ObjectDBX Classes
 90
     4095
280
     0
281
     0
  0
CLASS
  1
MLEADERSTYLE
  2
AcDbMLeaderStyle
  3
ACDB_MLEADERSTYLE_CLASS
 90
     4095
280
     0
281
     0
  0
CLASS
  1
SUN
  2
AcDbSun
  3
SCENEOE
 90
     1153
280
     0
281
     0
  0
CLASS
  1
ACDBPLACEHOLDER
  2
AcDbPlaceHolder
  3
ObjectDBX Classes
 90
        0
280
     0
281
     0
  0
CLASS
  1
LAYOUT
  2
AcDbLayout
  3
ObjectDBX Classes
 90
        0
280
     0
281
     0
  0
ENDSEC
  0
SECTION
  2
TABLES
  0
TABLE
  2
VPORT
  5
8
330
0
100
AcDbSymbolTable
 70
     1
  0
VPORT
  5
29
330
8
100
AcDbSymbolTableRecord
100
AcDbViewportTableRecord
  2
*Active
 70
     0
 10
0.0
 20
0.0
 11
1.0
 21
1.0
 12
139.7
 22
107.95
 13
0.0
 23
0.0
 14
10.0
 24
10.0
 15
10.0
 25
10.0
 16
0.0
 26
0.0
 36
1.0
 17
0.0
 27
0.0
 37
0.0
 40
215.9
 41
1.2941176471
 42
50.0
 43
0.0
 44
0.0
 50
0.0
 51
0.0
 71
     0
 72
  2000
 73
     1
 74
     3
 75
     0
 76
     0
 77
     0
 78
     0
281
     0
 65
     1
110
0.0
120
0.0
130
0.0
111
1.0
121
0.0
131
0.0
112
0.0
122
1.0
132
0.0
 79
     0
146
0.0
  0
ENDTAB
  0
TABLE
  2
LTYPE
  5
5
330
0
100
AcDbSymbolTable
 70
     6
  0
LTYPE
  5
14
330
5
100
AcDbSymbolTableRecord
100
AcDbLinetypeTableRecord
  2
ByBlock
 70
     0
  3

 72
    65
 73
     0
 40
0.0
  0
LTYPE
  5
15
330
5
100
AcDbSymbolTableRecord
100
AcDbLinetypeTableRecord
  2
ByLayer
 70
     0
  3

 72
    65
 73
     0
 40
0.0
  0
LTYPE
  5
16
330
5
100
AcDbSymbolTableRecord
100
AcDbLinetypeTableRecord
  2
Continuous
 70
     0
  3
Solid line
 72
    65
 73
     0
 40
0.0
  0
LTYPE
  5
6E
330
5
100
AcDbSymbolTableRecord
100
AcDbLinetypeTableRecord
  2
HIDDEN
 70
     0
  3
Hidden __ __ __ __ __ __ __ __ __ __ __ __ __ __
 72
    65
 73
     2
 40
1.905
 49
1.27
 74
     0
 49
-0.635
 74
     0
  0
LTYPE
  5
6F
330
5
100
AcDbSymbolTableRecord
100
AcDbLinetypeTableRecord
  2
PHANTOM
 70
     0
  3
Phantom ______  __  __  ______  __  __  ______
 72
    65
 73
     6
 40
12.7
 49
6.35
 74
     0
 49
-1.27
 74
     0
 49
1.27
 74
     0
 49
-1.27
 74
     0
 49
1.27
 74
     0
 49
-1.27
 74
     0
  0
LTYPE
  5
70
330
5
100
AcDbSymbolTableRecord
100
AcDbLinetypeTableRecord
  2
CENTER
 70
     0
  3
Center ____ _ ____ _ ____ _ ____ _ ____ _ ____
 72
    65
 73
     4
 40
10.16
 49
6.35
 74
     0
 49
-1.27
 74
     0
 49
1.27
 74
     0
 49
-1.27
 74
     0
  0
LTYPE
  5
71
330
5
100
AcDbSymbolTableRecord
100
AcDbLinetypeTableRecord
  2
CENTERX2
 70
     0
  3
Center (2x) ________  __  ________  __  _____
 72
    65
 73
     4
 40
20.32
 49
12.7
 74
     0
 49
-2.54
 74
     0
 49
2.54
 74
     0
 49
-2.54
 74
     0
  0
LTYPE
  5
72
330
5
100
AcDbSymbolTableRecord
100
AcDbLinetypeTableRecord
  2
DOT2
 70
     0
  3
Dot (.5x) ........................................
 72
    65
 73
     2
 40
0.635
 49
0.0
 74
     0
 49
-0.635
 74
     0
  0
ENDTAB
  0
TABLE
  2
LAYER
  5
2
330
0
100
AcDbSymbolTable
 70
    17
  0
LAYER
  5
10
330
2
100
AcDbSymbolTableRecord
100
AcDbLayerTableRecord
  2
0
 70
     0
 62
     7
  6
Continuous
370
    -3
390
F
  0
LAYER
  5
73
330
2
100
AcDbSymbolTableRecord
100
AcDbLayerTableRecord
  2
FORMAT
 70
     0
 62
     7
  6
Continuous
370
    -3
390
F
  0
LAYER
  5
74
330
2
100
AcDbSymbolTableRecord
100
AcDbLayerTableRecord
  2
YARDIMCI_GEOMETRI
 70
     0
 62
    -6
  6
Continuous
290
     0
370
    -3
390
F
  0
LAYER
  5
75
330
2
100
AcDbSymbolTableRecord
100
AcDbLayerTableRecord
  2
SAYFA_CERCEVESI
 70
     0
 62
     7
  6
Continuous
370
    25
390
F
  0
LAYER
  5
76
330
2
100
AcDbSymbolTableRecord
100
AcDbLayerTableRecord
  2
ANTET
 70
     0
 62
     7
  6
Continuous
370
    -3
390
F
  0
LAYER
  5
77
330
2
100
AcDbSymbolTableRecord
100
AcDbLayerTableRecord
  2
OLCU
 70
     0
 62
   150
  6
Continuous
370
    -3
390
F
  0
LAYER
  5
78
330
2
100
AcDbSymbolTableRecord
100
AcDbLayerTableRecord
  2
METIN
 70
     0
 62
    96
  6
Continuous
370
    -3
390
F
  0
LAYER
  5
79
330
2
100
AcDbSymbolTableRecord
100
AcDbLayerTableRecord
  2
BALON
 70
     0
 62
     5
  6
Continuous
370
    -3
390
F
  0
LAYER
  5
7A
330
2
100
AcDbSymbolTableRecord
100
AcDbLayerTableRecord
  2
VURGU
 70
     0
 62
     7
  6
Continuous
370
    -3
390
F
  0
LAYER
  5
7B
330
2
100
AcDbSymbolTableRecord
100
AcDbLayerTableRecord
  2
SILIK
 70
     0
 62
     7
  6
Continuous
370
    -3
390
F
  0
LAYER
  5
7C
330
2
100
AcDbSymbolTableRecord
100
AcDbLayerTableRecord
  2
MODEL
 70
     0
 62
     7
  6
Continuous
370
    -3
390
F
  0
LAYER
  5
7D
330
2
100
AcDbSymbolTableRecord
100
AcDbLayerTableRecord
  2
DETAYLANDıRMA
 70
     0
 62
   190
  6
Continuous
370
    -3
390
F
  0
LAYER
  5
7E
330
2
100
AcDbSymbolTableRecord
100
AcDbLayerTableRecord
  2
TOLERANS
 70
     0
 62
   230
  6
Continuous
370
    -3
390
F
  0
LAYER
  5
7F
330
2
100
AcDbSymbolTableRecord
100
AcDbLayerTableRecord
  2
MERKEZ_CIZGILERI
 70
     0
 62
    30
  6
Continuous
370
    -3
390
F
  0
LAYER
  5
80
330
2
100
AcDbSymbolTableRecord
100
AcDbLayerTableRecord
  2
KESIT-DETAY_CIZGILERI
 70
     0
 62
     7
  6
Continuous
370
    -3
390
F
  0
LAYER
  5
81
330
2
100
AcDbSymbolTableRecord
100
AcDbLayerTableRecord
  2
\U+041E\U+0421\U+0415\U+0412\U+042B\U+0415
 70
     0
 62
     7
  6
Continuous
370
    -3
390
F
  0
LAYER
  5
82
330
2
100
AcDbSymbolTableRecord
100
AcDbLayerTableRecord
  2
\U+0412\U+041E\U+0414\U+042F\U+041D\U+042B\U+0415_\U+0417\U+041D\U+0410\U+041A\U+0418
 70
     0
 62
    11
  6
Continuous
370
    -3
390
F
  0
ENDTAB
  0
TABLE
  2
STYLE
  5
3
330
0
100
AcDbSymbolTable
 70
     1
  0
STYLE
  5
11
330
3
100
AcDbSymbolTableRecord
100
AcDbTextStyleTableRecord
  2
Standard
 70
     0
 40
0.0
 41
1.0
 50
0.0
 71
     0
 42
3.5
  3
txt
  4

  0
ENDTAB
  0
TABLE
  2
VIEW
  5
6
330
0
100
AcDbSymbolTable
 70
     0
  0
ENDTAB
  0
TABLE
  2
UCS
  5
7
330
0
100
AcDbSymbolTable
 70
     0
  0
ENDTAB
  0
TABLE
  2
APPID
  5
9
330
0
100
AcDbSymbolTable
 70
     1
  0
APPID
  5
12
330
9
100
AcDbSymbolTableRecord
100
AcDbRegAppTableRecord
  2
ACAD
 70
     0
  0
ENDTAB
  0
TABLE
  2
DIMSTYLE
  5
A
330
0
100
AcDbSymbolTable
 70
     1
100
AcDbDimStyleTable
  0
DIMSTYLE
105
27
330
A
100
AcDbSymbolTableRecord
100
AcDbDimStyleTableRecord
  2
ISO-25
 70
     0
 41
2.5
 42
0.625
 43
3.75
 44
1.25
 73
     0
 74
     0
 77
     1
 78
     8
140
2.5
141
2.5
143
0.0393700787
147
0.625
171
     3
172
     1
178
     0
271
     2
272
     2
274
     3
278
    44
283
     0
284
     8
340
11
  0
ENDTAB
  0
TABLE
  2
BLOCK_RECORD
  5
1
330
0
100
AcDbSymbolTable
 70
     1
  0
BLOCK_RECORD
  5
1F
330
1
100
AcDbSymbolTableRecord
100
AcDbBlockTableRecord
  2
*Model_Space
340
22
  0
BLOCK_RECORD
  5
1B
330
1
100
AcDbSymbolTableRecord
100
AcDbBlockTableRecord
  2
*Paper_Space
340
1E
  0
BLOCK_RECORD
  5
23
330
1
100
AcDbSymbolTableRecord
100
AcDbBlockTableRecord
  2
*Paper_Space0
340
26
  0
ENDTAB
  0
ENDSEC
  0
SECTION
  2
BLOCKS
  0
BLOCK
  5
20
330
1F
100
AcDbEntity
  8
0
100
AcDbBlockBegin
  2
*Model_Space
 70
     0
 10
0.0
 20
0.0
 30
0.0
  3
*Model_Space
  1

  0
ENDBLK
  5
21
330
1F
100
AcDbEntity
  8
0
100
AcDbBlockEnd
  0
BLOCK
  5
1C
330
1B
100
AcDbEntity
 67
     1
  8
0
100
AcDbBlockBegin
  2
*Paper_Space
 70
     0
 10
0.0
 20
0.0
 30
0.0
  3
*Paper_Space
  1

  0
ENDBLK
  5
1D
330
1B
100
AcDbEntity
 67
     1
  8
0
100
AcDbBlockEnd
  0
BLOCK
  5
24
330
23
100
AcDbEntity
  8
0
100
AcDbBlockBegin
  2
*Paper_Space0
 70
     0
 10
0.0
 20
0.0
 30
0.0
  3
*Paper_Space0
  1

  0
ENDBLK
  5
25
330
23
100
AcDbEntity
  8
0
100
AcDbBlockEnd
  0
ENDSEC
  0
SECTION
  2
ENTITIES
  0
CIRCLE
  5
83
330
1F
100
AcDbEntity
  8
0
  6
Continuous
 62
     7
370
    25
100
AcDbCircle
 10
147.3254957316
 20
109.7744034417
 30
0.0
 40
355.0
  0
CIRCLE
  5
84
330
1F
100
AcDbEntity
  8
0
  6
Continuous
 62
     7
370
    25
100
AcDbCircle
 10
147.3254957316
 20
109.7744034417
 30
0.0
 40
312.9
  0
CIRCLE
  5
85
330
1F
100
AcDbEntity
  8
0
  6
Continuous
 62
     7
370
    25
100
AcDbCircle
 10
147.3254957316
 20
109.7744034417
 30
0.0
 40
370.0
  0
CIRCLE
  5
86
330
1F
100
AcDbEntity
  8
0
  6
Continuous
 62
     7
370
    25
100
AcDbCircle
 10
147.3254957316
 20
109.7744034417
 30
0.0
 40
400.0
  0
LINE
  5
87
330
1F
100
AcDbEntity
  8
0
  6
Continuous
 62
     7
370
    25
100
AcDbLine
 10
547.3254957316
 20
848.5292293602
 30
0.0
 11
547.3254957316
 21
898.5292293602
 31
0.0
  0
LINE
  5
88
330
1F
100
AcDbEntity
  8
0
  6
Continuous
 62
     7
370
    25
100
AcDbLine
 10
-252.6745042684
 20
898.5292293602
 30
0.0
 11
-252.6745042684
 21
848.5292293602
 31
0.0
  0
LINE
  5
89
330
1F
100
AcDbEntity
  8
0
  6
Continuous
 62
     7
370
    25
100
AcDbLine
 10
517.3254957316
 20
898.5292293602
 30
0.0
 11
502.3254957316
 21
938.5292293602
 31
0.0
  0
LINE
  5
8A
330
1F
100
AcDbEntity
  8
0
  6
Continuous
 62
     7
370
    25
100
AcDbLine
 10
-207.6745042684
 20
938.5292293602
 30
0.0
 11
-222.6745042684
 21
898.5292293602
 31
0.0
  0
LINE
  5
8B
330
1F
100
AcDbEntity
  8
0
  6
Continuous
 62
     7
370
    25
100
AcDbLine
 10
502.3254957316
 20
938.5292293602
 30
0.0
 11
502.3254957316
 21
978.5292293602
 31
0.0
  0
LINE
  5
8C
330
1F
100
AcDbEntity
  8
0
  6
Continuous
 62
     7
370
    25
100
AcDbLine
 10
-207.6745042684
 20
978.5292293602
 30
0.0
 11
-207.6745042684
 21
938.5292293602
 31
0.0
  0
LINE
  5
8D
330
1F
100
AcDbEntity
  8
0
  6
Continuous
 62
     7
370
    25
100
AcDbLine
 10
547.3254957316
 20
848.5292293602
 30
0.0
 11
-252.6745042684
 21
848.5292293602
 31
0.0
  0
LINE
  5
8E
330
1F
100
AcDbEntity
  8
0
  6
Continuous
 62
     7
370
    25
100
AcDbLine
 10
547.3254957316
 20
898.5292293602
 30
0.0
 11
-252.6745042684
 21
898.5292293602
 31
0.0
  0
LINE
  5
8F
330
1F
100
AcDbEntity
  8
0
  6
Continuous
 62
     7
370
    25
100
AcDbLine
 10
502.3254957316
 20
938.5292293602
 30
0.0
 11
-207.6745042684
 21
938.5292293602
 31
0.0
  0
LINE
  5
90
330
1F
100
AcDbEntity
  8
0
  6
Continuous
 62
     7
370
    25
100
AcDbLine
 10
502.3254957316
 20
978.5292293602
 30
0.0
 11
-207.6745042684
 21
978.5292293602
 31
0.0
  0
LINE
  5
91
330
1F
100
AcDbEntity
  8
0
  6
Continuous
 62
     7
370
    25
100
AcDbLine
 10
-630.6899770078
 20
509.7744034417
 30
0.0
 11
-680.6899770078
 21
509.7744034417
 31
0.0
  0
LINE
  5
92
330
1F
100
AcDbEntity
  8
0
  6
Continuous
 62
     7
370
    25
100
AcDbLine
 10
-680.6899770078
 20
-290.2255965583
 30
0.0
 11
-630.6899770078
 21
-290.2255965583
 31
0.0
  0
LINE
  5
93
330
1F
100
AcDbEntity
  8
0
  6
Continuous
 62
     7
370
    25
100
AcDbLine
 10
-680.6899770078
 20
479.7744034417
 30
0.0
 11
-720.6899770078
 21
464.7744034417
 31
0.0
  0
LINE
  5
94
330
1F
100
AcDbEntity
  8
0
  6
Continuous
 62
     7
370
    25
100
AcDbLine
 10
-720.6899770078
 20
-245.2255965583
 30
0.0
 11
-680.6899770078
 21
-260.2255965583
 31
0.0
  0
LINE
  5
95
330
1F
100
AcDbEntity
  8
0
  6
Continuous
 62
     7
370
    25
100
AcDbLine
 10
-720.6899770078
 20
464.7744034417
 30
0.0
 11
-760.6899770078
 21
464.7744034417
 31
0.0
  0
LINE
  5
96
330
1F
100
AcDbEntity
  8
0
  6
Continuous
 62
     7
370
    25
100
AcDbLine
 10
-760.6899770078
 20
-245.2255965583
 30
0.0
 11
-720.6899770078
 21
-245.2255965583
 31
0.0
  0
LINE
  5
97
330
1F
100
AcDbEntity
  8
0
  6
Continuous
 62
     7
370
    25
100
AcDbLine
 10
-630.6899770078
 20
509.7744034417
 30
0.0
 11
-630.6899770078
 21
-290.2255965583
 31
0.0
  0
LINE
  5
98
330
1F
100
AcDbEntity
  8
0
  6
Continuous
 62
     7
370
    25
100
AcDbLine
 10
-680.6899770078
 20
509.7744034417
 30
0.0
 11
-680.6899770078
 21
-290.2255965583
 31
0.0
  0
LINE
  5
99
330
1F
100
AcDbEntity
  8
0
  6
Continuous
 62
     7
370
    25
100
AcDbLine
 10
-720.6899770078
 20
464.7744034417
 30
0.0
 11
-720.6899770078
 21
-245.2255965583
 31
0.0
  0
LINE
  5
9A
330
1F
100
AcDbEntity
  8
0
  6
Continuous
 62
     7
370
    25
100
AcDbLine
 10
-760.6899770078
 20
464.7744034417
 30
0.0
 11
-760.6899770078
 21
-245.2255965583
 31
0.0
  0
LINE
  5
9B
330
1F
100
AcDbEntity
  8
0
  6
Continuous
 62
     7
370
    25
100
AcDbLine
 10
-252.6745042684
 20
-643.7544050238
 30
0.0
 11
-252.6745042684
 21
-693.7544050238
 31
0.0
  0
LINE
  5
9C
330
1F
100
AcDbEntity
  8
0
  6
Continuous
 62
     7
370
    25
100
AcDbLine
 10
547.3254957316
 20
-693.7544050238
 30
0.0
 11
547.3254957316
 21
-643.7544050238
 31
0.0
  0
LINE
  5
9D
330
1F
100
AcDbEntity
  8
0
  6
Continuous
 62
     7
370
    25
100
AcDbLine
 10
-222.6745042684
 20
-693.7544050238
 30
0.0
 11
-207.6745042684
 21
-733.7544050238
 31
0.0
  0
LINE
  5
9E
330
1F
100
AcDbEntity
  8
0
  6
Continuous
 62
     7
370
    25
100
AcDbLine
 10
502.3254957316
 20
-733.7544050238
 30
0.0
 11
517.3254957316
 21
-693.7544050238
 31
0.0
  0
LINE
  5
9F
330
1F
100
AcDbEntity
  8
0
  6
Continuous
 62
     7
370
    25
100
AcDbLine
 10
-207.6745042684
 20
-733.7544050238
 30
0.0
 11
-207.6745042684
 21
-773.7544050238
 31
0.0
  0
LINE
  5
A0
330
1F
100
AcDbEntity
  8
0
  6
Continuous
 62
     7
370
    25
100
AcDbLine
 10
502.3254957316
 20
-773.7544050238
 30
0.0
 11
502.3254957316
 21
-733.7544050238
 31
0.0
  0
LINE
  5
A1
330
1F
100
AcDbEntity
  8
0
  6
Continuous
 62
     7
370
    25
100
AcDbLine
 10
-252.6745042684
 20
-643.7544050238
 30
0.0
 11
547.3254957316
 21
-643.7544050238
 31
0.0
  0
LINE
  5
A2
330
1F
100
AcDbEntity
  8
0
  6
Continuous
 62
     7
370
    25
100
AcDbLine
 10
-252.6745042684
 20
-693.7544050238
 30
0.0
 11
547.3254957316
 21
-693.7544050238
 31
0.0
  0
LINE
  5
A3
330
1F
100
AcDbEntity
  8
0
  6
Continuous
 62
     7
370
    25
100
AcDbLine
 10
-207.6745042684
 20
-733.7544050238
 30
0.0
 11
502.3254957316
 21
-733.7544050238
 31
0.0
  0
LINE
  5
A4
330
1F
100
AcDbEntity
  8
0
  6
Continuous
 62
     7
370
    25
100
AcDbLine
 10
-207.6745042684
 20
-773.7544050238
 30
0.0
 11
502.3254957316
 21
-773.7544050238
 31
0.0
  0
LINE
  5
A5
330
1F
100
AcDbEntity
  8
0
  6
Continuous
 62
     7
370
    25
100
AcDbLine
 10
984.8517080618
 20
-290.2255965583
 30
0.0
 11
1034.8517080618
 21
-290.2255965583
 31
0.0
  0
LINE
  5
A6
330
1F
100
AcDbEntity
  8
0
  6
Continuous
 62
     7
370
    25
100
AcDbLine
 10
1034.8517080618
 20
509.7744034417
 30
0.0
 11
984.8517080618
 21
509.7744034417
 31
0.0
  0
LINE
  5
A7
330
1F
100
AcDbEntity
  8
0
  6
Continuous
 62
     7
370
    25
100
AcDbLine
 10
1034.8517080618
 20
-260.2255965583
 30
0.0
 11
1074.8517080618
 21
-245.2255965583
 31
0.0
  0
LINE
  5
A8
330
1F
100
AcDbEntity
  8
0
  6
Continuous
 62
     7
370
    25
100
AcDbLine
 10
1074.8517080618
 20
464.7744034417
 30
0.0
 11
1034.8517080618
 21
479.7744034417
 31
0.0
  0
LINE
  5
A9
330
1F
100
AcDbEntity
  8
0
  6
Continuous
 62
     7
370
    25
100
AcDbLine
 10
1074.8517080618
 20
-245.2255965583
 30
0.0
 11
1114.8517080618
 21
-245.2255965583
 31
0.0
  0
LINE
  5
AA
330
1F
100
AcDbEntity
  8
0
  6
Continuous
 62
     7
370
    25
100
AcDbLine
 10
1114.8517080618
 20
464.7744034417
 30
0.0
 11
1074.8517080618
 21
464.7744034417
 31
0.0
  0
LINE
  5
AB
330
1F
100
AcDbEntity
  8
0
  6
Continuous
 62
     7
370
    25
100
AcDbLine
 10
984.8517080618
 20
109.7744034417
 30
0.0
 11
984.8517080618
 21
509.7744034417
 31
0.0
  0
LINE
  5
AC
330
1F
100
AcDbEntity
  8
0
  6
Continuous
 62
     7
370
    25
100
AcDbLine
 10
984.8517080618
 20
-290.2255965583
 30
0.0
 11
984.8517080618
 21
109.7744034417
 31
0.0
  0
LINE
  5
AD
330
1F
100
AcDbEntity
  8
0
  6
Continuous
 62
     7
370
    25
100
AcDbLine
 10
1034.8517080618
 20
109.7744034417
 30
0.0
 11
1034.8517080618
 21
509.7744034417
 31
0.0
  0
LINE
  5
AE
330
1F
100
AcDbEntity
  8
0
  6
Continuous
 62
     7
370
    25
100
AcDbLine
 10
1034.8517080618
 20
-290.2255965583
 30
0.0
 11
1034.8517080618
 21
109.7744034417
 31
0.0
  0
LINE
  5
AF
330
1F
100
AcDbEntity
  8
0
  6
Continuous
 62
     7
370
    25
100
AcDbLine
 10
1074.8517080618
 20
109.7744034417
 30
0.0
 11
1074.8517080618
 21
464.7744034417
 31
0.0
  0
LINE
  5
B0
330
1F
100
AcDbEntity
  8
0
  6
Continuous
 62
     7
370
    25
100
AcDbLine
 10
1074.8517080618
 20
-245.2255965583
 30
0.0
 11
1074.8517080618
 21
109.7744034417
 31
0.0
  0
LINE
  5
B1
330
1F
100
AcDbEntity
  8
0
  6
Continuous
 62
     7
370
    25
100
AcDbLine
 10
1114.8517080618
 20
109.7744034417
 30
0.0
 11
1114.8517080618
 21
464.7744034417
 31
0.0
  0
LINE
  5
B2
330
1F
100
AcDbEntity
  8
0
  6
Continuous
 62
     7
370
    25
100
AcDbLine
 10
1114.8517080618
 20
-245.2255965583
 30
0.0
 11
1114.8517080618
 21
109.7744034417
 31
0.0
  0
LINE
  5
B3
330
1F
100
AcDbEntity
  8
0
  6
Continuous
 62
     7
370
    25
100
AcDbLine
 10
1220.2237215128
 20
-512.6182996404
 30
0.0
 11
1184.8683824534
 21
-492.2080968448
 31
0.0
  0
LINE
  5
B4
330
1F
100
AcDbEntity
  8
0
  6
Continuous
 62
     7
370
    25
100
AcDbLine
 10
784.900889399
 20
-1185.0471867494
 30
0.0
 11
820.2562284584
 21
-1205.4573895449
 31
0.0
  0
LINE
  5
B5
330
1F
100
AcDbEntity
  8
0
  6
Continuous
 62
     7
370
    25
100
AcDbLine
 10
1134.0859397217
 20
-514.8521334155
 30
0.0
 11
1105.8016684742
 21
-498.523971179
 31
0.0
  0
LINE
  5
B6
330
1F
100
AcDbEntity
  8
0
  6
Continuous
 62
     7
370
    25
100
AcDbLine
 10
750.8305183884
 20
-1113.4186634693
 30
0.0
 11
779.1147896359
 21
-1129.7468257058
 31
0.0
  0
LINE
  5
B7
330
1F
100
AcDbEntity
  8
0
  6
Continuous
 62
     7
370
    25
100
AcDbLine
 10
1114.1830997518
 20
-501.338412093
 30
0.0
 11
1110.1196867957
 21
-501.0167100966
 31
0.0
  0
LINE
  5
B8
330
1F
100
AcDbEntity
  8
0
  6
Continuous
 62
     7
370
    25
100
AcDbLine
 10
755.1485367099
 20
-1115.9114023869
 30
0.0
 11
757.4591604036
 21
-1119.2693534248
 31
0.0
  0
LWPOLYLINE
  5
B9
330
1F
100
AcDbEntity
  8
0
  6
Continuous
 62
     7
370
    25
100
AcDbPolyline
 90
      108
 70
   128
 43
0.0
 10
1220.2237215128
 20
-512.6182996404
 10
1223.1816737882
 20
-514.3771584877
 10
1228.9307409838
 20
-518.1027625287
 10
1234.4965094486
 20
-522.1278190514
 10
1239.874090618
 20
-526.4487927402
 10
1245.0587612174
 20
-531.0618883674
 10
1250.0459674107
 20
-535.9630541264
 10
1254.8313288002
 20
-541.1479851913
 10
1259.4106422737
 20
-546.6121274971
 10
1263.7798856968
 20
-552.3506817402
 10
1267.935221445
 20
-558.3586075937
 10
1271.8729997748
 20
-564.630628134
 10
1275.5897620293
 20
-571.1612344764
 10
1279.0822436758
 20
-577.944690613
 10
1282.3473771736
 20
-584.9750384514
 10
1285.3822946678
 20
-592.2461030472
 10
1288.1843305084
 20
-599.7514980284
 10
1290.7510235917
 20
-607.4846312039
 10
1293.0801195221
 20
-615.4387103542
 10
1295.1695725916
 20
-623.606749197
 10
1297.0175475772
 20
-631.9815735234
 10
1298.6224213527
 20
-640.5558274993
 10
1299.9827843142
 20
-649.3219801259
 10
1301.097441618
 20
-658.2723318549
 10
1301.9654142308
 20
-667.3990213508
 10
1302.5859397886
 20
-676.6940323962
 10
1302.9584732671
 20
-686.1492009318
 10
1303.0826874602
 20
-695.7562222281
 10
1302.9584732671
 20
-705.5066581791
 10
1302.5859397886
 20
-715.3919447137
 10
1301.9654142308
 20
-725.4033993181
 10
1301.097441618
 20
-735.5322286616
 10
1299.9827843142
 20
-745.76953632
 10
1298.6224213527
 20
-756.1063305899
 10
1297.0175475772
 20
-766.5335323858
 10
1295.1695725916
 20
-777.0419832151
 10
1293.0801195221
 20
-787.622453222
 10
1290.7510235917
 20
-798.265649294
 10
1288.1843305084
 20
-808.9622232249
 10
1285.3822946678
 20
-819.7027799253
 10
1282.3473771736
 20
-830.4778856743
 10
1279.0822436758
 20
-841.2780764058
 10
1275.5897620293
 20
-852.0938660209
 10
1271.8729997748
 20
-862.9157547198
 10
1267.935221445
 20
-873.7342373456
 10
1263.7798856968
 20
-884.5398117331
 10
1259.4106422737
 20
-895.3229870547
 10
1254.8313288002
 20
-906.0742921566
 10
1250.0459674107
 20
-916.7842838775
 10
1245.0587612174
 20
-927.4435553427
 10
1239.874090618
 20
-938.0427442263
 10
1234.4965094486
 20
-948.5725409748
 10
1228.9307409838
 20
-959.0236969837
 10
1223.1816737882
 20
-969.3870327205
 10
1217.2543574227
 20
-979.6534457879
 10
1211.1539980092
 20
-989.8139189183
 10
1204.885953658
 20
-999.8595278939
 10
1198.4557297615
 20
-1009.7814493854
 10
1191.8689741589
 20
-1019.5709687014
 10
1185.1314721753
 20
-1029.2194874429
 10
1178.2491415406
 20
-1038.7185310556
 10
1171.2280271915
 20
-1048.0597562731
 10
1164.0742959621
 20
-1057.2349584454
 10
1156.7942311675
 20
-1066.2360787447
 10
1149.3942270852
 20
-1075.0552112442
 10
1141.8807833384
 20
-1083.684609862
 10
1134.2604991874
 20
-1092.1166951643
 10
1126.5400677335
 20
-1100.3440610231
 10
1118.7262700399
 20
-1108.359481121
 10
1110.825969176
 20
-1116.1559152982
 10
1102.8461041891
 20
-1123.7265157363
 10
1094.79368401
 20
-1131.0646329726
 10
1086.6757812967
 20
-1138.1638217406
 10
1078.4995262221
 20
-1145.0178466315
 10
1070.2721002116
 20
-1151.6206875702
 10
1062.0007296356
 20
-1157.9665451032
 10
1053.6926794619
 20
-1164.0498454928
 10
1045.3552468753
 20
-1169.8652456121
 10
1036.9957548677
 20
-1175.4076376381
 10
1028.6215458065
 20
-1180.6721535386
 10
1020.2399749856
 20
-1185.6541693469
 10
1011.8584041646
 20
-1190.3493092244
 10
1003.4841951034
 20
-1194.7534493029
 10
995.1247030958
 20
-1198.8627213074
 10
986.7872705092
 20
-1202.6735159533
 10
978.4792203355
 20
-1206.182486117
 10
970.2078497595
 20
-1209.3865497752
 10
961.9804237491
 20
-1212.2828927124
 10
953.8041686744
 20
-1214.8689709925
 10
945.6862659611
 20
-1217.142513193
 10
937.633845782
 20
-1219.1015224006
 10
929.6539807951
 20
-1220.7442779646
 10
921.7536799312
 20
-1222.0693370084
 10
913.9398822376
 20
-1223.075535697
 10
906.2194507837
 20
-1223.7619902589
 10
898.5991666327
 20
-1224.1280977625
 10
891.0857228859
 20
-1224.1735366457
 10
883.6857188036
 20
-1223.8982669983
 10
876.4056540091
 20
-1223.3025305972
 10
869.2519227796
 20
-1222.3868506935
 10
862.2308084305
 20
-1221.1520315538
 10
855.3484777958
 20
-1219.599157753
 10
848.6109758122
 20
-1217.729593222
 10
842.0242202096
 20
-1215.5449800498
 10
835.5939963131
 20
-1213.0472370411
 10
829.3259519619
 20
-1210.238558031
 10
823.2255925484
 20
-1207.1214099581
 10
820.2562284584
 20
-1205.4573895449
  0
LWPOLYLINE
  5
BA
330
1F
100
AcDbEntity
  8
0
  6
Continuous
 62
     7
370
    25
100
AcDbPolyline
 90
      144
 70
   128
 43
0.0
 10
1052.7188612649
 20
-482.3837986543
 10
1059.4383449507
 20
-480.5229731967
 10
1067.4907651298
 20
-478.5639639891
 10
1075.4706301167
 20
-476.9212084252
 10
1083.3709309806
 20
-475.5961493813
 10
1091.1847286742
 20
-474.5899506927
 10
1098.9051601281
 20
-473.9034961309
 10
1106.5254442791
 20
-473.5373886273
 10
1114.0388880259
 20
-473.491949744
 10
1121.4388921082
 20
-473.7672193914
 10
1128.7189569027
 20
-474.3629557926
 10
1135.8726881322
 20
-475.2786356962
 10
1142.8938024813
 20
-476.5134548359
 10
1149.776133116
 20
-478.0663286367
 10
1156.5136350996
 20
-479.9358931677
 10
1163.1003907022
 20
-482.1205063399
 10
1169.5306145987
 20
-484.6182493486
 10
1175.7986589499
 20
-487.4269283587
 10
1181.8990183634
 20
-490.5440764316
 10
1187.8263347289
 20
-493.9669556922
 10
1193.5754019244
 20
-497.6925597331
 10
1199.1411703892
 20
-501.7176162558
 10
1204.5187515587
 20
-506.0385899447
 10
1209.7034221581
 20
-510.6516855718
 10
1214.6906283514
 20
-515.5528513309
 10
1219.4759897408
 20
-520.7377823957
 10
1224.0553032144
 20
-526.2019247015
 10
1228.4245466375
 20
-531.9404789447
 10
1232.5798823857
 20
-537.9484047981
 10
1236.5176607155
 20
-544.2204253384
 10
1240.2344229699
 20
-550.7510316808
 10
1243.7269046165
 20
-557.5344878175
 10
1246.9920381143
 20
-564.5648356558
 10
1250.0269556085
 20
-571.8359002517
 10
1252.828991449
 20
-579.3412952328
 10
1255.3956845324
 20
-587.0744284083
 10
1257.7247804627
 20
-595.0285075586
 10
1259.8142335322
 20
-603.1965464015
 10
1261.6622085179
 20
-611.5713707279
 10
1263.2670822934
 20
-620.1456247037
 10
1264.6274452548
 20
-628.9117773303
 10
1265.7421025587
 20
-637.8621290593
 10
1266.6100751714
 20
-646.9888185553
 10
1267.2306007292
 20
-656.2838296006
 10
1267.6031342078
 20
-665.7389981362
 10
1267.7273484009
 20
-675.3460194325
 10
1267.6031342078
 20
-685.0964553835
 10
1267.2306007292
 20
-694.9817419181
 10
1266.6100751714
 20
-704.9931965226
 10
1265.7421025587
 20
-715.122025866
 10
1264.6274452548
 20
-725.3593335245
 10
1263.2670822934
 20
-735.6961277943
 10
1261.6622085179
 20
-746.1233295902
 10
1259.8142335322
 20
-756.6317804196
 10
1257.7247804627
 20
-767.2122504264
 10
1255.3956845324
 20
-777.8554464984
 10
1252.828991449
 20
-788.5520204294
 10
1250.0269556084
 20
-799.2925771297
 10
1246.9920381143
 20
-810.0676828787
 10
1243.7269046165
 20
-820.8678736102
 10
1240.2344229699
 20
-831.6836632254
 10
1236.5176607155
 20
-842.5055519242
 10
1232.5798823857
 20
-853.32403455
 10
1228.4245466375
 20
-864.1296089375
 10
1224.0553032144
 20
-874.9127842591
 10
1219.4759897408
 20
-885.6640893611
 10
1214.6906283514
 20
-896.374081082
 10
1209.7034221581
 20
-907.0333525471
 10
1204.5187515587
 20
-917.6325414307
 10
1199.1411703892
 20
-928.1623381793
 10
1193.5754019244
 20
-938.6134941881
 10
1187.8263347289
 20
-948.9768299249
 10
1181.8990183634
 20
-959.2432429923
 10
1175.7986589499
 20
-969.4037161227
 10
1169.5306145987
 20
-979.4493250984
 10
1163.1003907022
 20
-989.3712465899
 10
1156.5136350996
 20
-999.1607659058
 10
1149.776133116
 20
-1008.8092846473
 10
1142.8938024813
 20
-1018.30832826
 10
1135.8726881322
 20
-1027.6495534776
 10
1128.7189569027
 20
-1036.8247556498
 10
1121.4388921082
 20
-1045.8258759491
 10
1114.0388880259
 20
-1054.6450084487
 10
1106.5254442791
 20
-1063.2744070664
 10
1098.9051601281
 20
-1071.7064923687
 10
1091.1847286742
 20
-1079.9338582275
 10
1083.3709309806
 20
-1087.9492783254
 10
1075.4706301166
 20
-1095.7457125026
 10
1067.4907651298
 20
-1103.3163129407
 10
1059.4383449507
 20
-1110.654430177
 10
1051.3204422374
 20
-1117.7536189451
 10
1043.1441871627
 20
-1124.6076438359
 10
1034.9167611523
 20
-1131.2104847746
 10
1026.6453905763
 20
-1137.5563423077
 10
1018.3373404026
 20
-1143.6396426973
 10
1009.999907816
 20
-1149.4550428165
 10
1001.6404158084
 20
-1154.9974348426
 10
993.2662067472
 20
-1160.261950743
 10
984.8846359262
 20
-1165.2439665514
 10
976.5030651053
 20
-1169.9391064288
 10
968.1288560441
 20
-1174.3432465073
 10
959.7693640365
 20
-1178.4525185118
 10
951.4319314499
 20
-1182.2633131577
 10
943.1238812762
 20
-1185.7722833214
 10
934.8525107002
 20
-1188.9763469796
 10
926.6250846897
 20
-1191.8726899169
 10
918.4488296151
 20
-1194.4587681969
 10
910.3309269018
 20
-1196.7323103974
 10
902.2785067227
 20
-1198.691319605
 10
894.2986417358
 20
-1200.334075169
 10
886.3983408719
 20
-1201.6591342128
 10
878.5845431783
 20
-1202.6653329014
 10
870.8641117244
 20
-1203.3517874633
 10
863.2438275734
 20
-1203.7178949669
 10
855.7303838266
 20
-1203.7633338501
 10
848.3303797443
 20
-1203.4880642028
 10
841.0503149497
 20
-1202.8923278016
 10
833.8965837203
 20
-1201.976647898
 10
826.8754693712
 20
-1200.7418287583
 10
819.9931387365
 20
-1199.1889549574
 10
813.2556367529
 20
-1197.3193904264
 10
806.6688811503
 20
-1195.1347772543
 10
800.2386572538
 20
-1192.6370342456
 10
793.9706129026
 20
-1189.8283552355
 10
787.8702534891
 20
-1186.7112071625
 10
781.9429371236
 20
-1183.288327902
 10
776.193869928
 20
-1179.5627238611
 10
770.6281014632
 20
-1175.5376673383
 10
765.2505202938
 20
-1171.2166936495
 10
760.0658496944
 20
-1166.6035980224
 10
755.0786435011
 20
-1161.7024322633
 10
750.2932821116
 20
-1156.5175011984
 10
745.7139686381
 20
-1151.0533588926
 10
741.344725215
 20
-1145.3148046495
 10
737.1893894668
 20
-1139.306878796
 10
733.251611137
 20
-1133.0348582557
 10
729.5348488825
 20
-1126.5042519133
 10
726.042367236
 20
-1119.7207957767
 10
722.7772337382
 20
-1112.6904479384
 10
719.742316244
 20
-1105.4193833425
 10
716.9402804034
 20
-1097.9139883613
 10
714.3735873201
 20
-1090.1808551858
 10
712.0444913897
 20
-1082.2267760355
 10
710.3077589752
 20
-1075.5214926
  0
LWPOLYLINE
  5
BB
330
1F
100
AcDbEntity
  8
0
  6
Continuous
 62
     7
370
    25
100
AcDbPolyline
 90
      122
 70
   128
 43
0.0
 10
1114.1830997518
 20
-501.338412093
 10
1115.6993904457
 20
-501.4662095151
 10
1122.6148242422
 20
-502.2500100926
 10
1129.3996126122
 20
-503.3528852291
 10
1136.0473197732
 20
-504.773788781
 10
1142.5516399721
 20
-506.5113729351
 10
1148.9064034672
 20
-508.5639894875
 10
1155.1055823805
 20
-510.9296914072
 10
1161.1432964152
 20
-513.6062346826
 10
1167.0138184339
 20
-516.5910804503
 10
1172.7115798908
 20
-519.8813974031
 10
1178.2311761141
 20
-523.4740644763
 10
1183.5673714324
 20
-527.3656738075
 10
1188.7151041412
 20
-531.5525339695
 10
1193.6694913042
 20
-536.0306734717
 10
1198.4258333852
 20
-540.7958445278
 10
1202.9796187054
 20
-545.8435270841
 10
1207.3265277237
 20
-551.1689331082
 10
1211.4624371337
 20
-556.7670111298
 10
1215.3834237746
 20
-562.6324510328
 10
1219.0857683532
 20
-568.7596890921
 10
1222.5659589714
 20
-575.1429132514
 10
1225.8206944575
 20
-581.7760686359
 10
1228.8468874978
 20
-588.6528632958
 10
1231.6416675649
 20
-595.7667741749
 10
1234.2023836407
 20
-603.1110532978
 10
1236.5266067307
 20
-610.678734171
 10
1238.6121321686
 20
-618.4626383906
 10
1240.4569817073
 20
-626.4553824521
 10
1242.0594053951
 20
-634.6493847535
 10
1243.4178832362
 20
-643.0368727874
 10
1244.531126632
 20
-651.6098905132
 10
1245.3980796037
 20
-660.3603059044
 10
1246.0179197939
 20
-669.279818662
 10
1246.3900592467
 20
-678.3599680877
 10
1246.5141449653
 20
-687.5921411099
 10
1246.3900592467
 20
-696.9675804532
 10
1246.0179197939
 20
-706.4773929455
 10
1245.3980796037
 20
-716.1125579536
 10
1244.531126632
 20
-725.8639359399
 10
1243.4178832362
 20
-735.7222771316
 10
1242.0594053951
 20
-745.678230295
 10
1240.4569817073
 20
-755.7223516056
 10
1238.6121321686
 20
-765.8451136056
 10
1236.5266067307
 20
-776.0369142424
 10
1234.2023836407
 20
-786.2880859756
 10
1231.6416675649
 20
-796.5889049478
 10
1228.8468874978
 20
-806.9296002084
 10
1225.8206944575
 20
-817.3003629815
 10
1222.5659589714
 20
-827.6913559703
 10
1219.0857683532
 20
-838.0927226888
 10
1215.3834237746
 20
-848.4945968104
 10
1211.4624371337
 20
-858.8871115275
 10
1207.3265277237
 20
-869.2604089104
 10
1202.9796187054
 20
-879.6046492582
 10
1198.4258333852
 20
-889.9100204323
 10
1193.6694913042
 20
-900.1667471638
 10
1188.7151041412
 20
-910.3651003264
 10
1183.5673714324
 20
-920.4954061641
 10
1178.2311761141
 20
-930.5480554684
 10
1172.7115798908
 20
-940.5135126923
 10
1167.0138184339
 20
-950.3823249962
 10
1161.1432964152
 20
-960.1451312137
 10
1155.1055823805
 20
-969.7926707317
 10
1148.9064034672
 20
-979.3157922748
 10
1142.5516399721
 20
-988.7054625851
 10
1136.0473197732
 20
-997.9527749918
 10
1129.3996126122
 20
-1007.0489578587
 10
1122.6148242422
 20
-1015.9853829056
 10
1115.6993904457
 20
-1024.7535733918
 10
1108.6598709308
 20
-1033.3452121577
 10
1101.5029431079
 20
-1041.7521495134
 10
1094.2353957567
 20
-1049.9664109697
 10
1086.8641225861
 20
-1057.9802048019
 10
1079.3961156952
 20
-1065.7859294412
 10
1071.8384589409
 20
-1073.3761806849
 10
1064.1983212183
 20
-1080.74375872
 10
1056.4829496609
 20
-1087.8816749525
 10
1048.6996627661
 20
-1094.7831586363
 10
1040.8558434528
 20
-1101.4416632963
 10
1032.9589320587
 20
-1107.8508729374
 10
1025.0164192828
 20
-1114.004708036
 10
1017.0358390795
 20
-1119.8973313068
 10
1009.0247615125
 20
-1125.5231532397
 10
1000.9907855741
 20
-1130.8768374017
 10
992.9415319771
 20
-1135.9533054993
 10
984.8846359262
 20
-1140.7477421948
 10
976.8277398754
 20
-1145.2555996747
 10
968.7784862784
 20
-1149.4726019631
 10
960.74451034
 20
-1153.3947489779
 10
952.733432773
 20
-1157.0183203251
 10
944.7528525696
 20
-1160.3398788277
 10
936.8103397937
 20
-1163.3562737863
 10
928.9134283997
 20
-1166.0646439676
 10
921.0696090864
 20
-1168.4624203184
 10
913.2863221915
 20
-1170.5473284027
 10
905.5709506342
 20
-1172.3173905587
 10
897.9308129116
 20
-1173.7709277753
 10
890.3731561573
 20
-1174.9065612845
 10
882.9051492663
 20
-1175.723213869
 10
875.5338760957
 20
-1176.2201108844
 10
868.2663287446
 20
-1176.3967809938
 10
861.1094009217
 20
-1176.2530566149
 10
854.0698814067
 20
-1175.789074079
 10
847.1544476103
 20
-1175.0052735016
 10
840.3696592402
 20
-1173.902398365
 10
833.7219520793
 20
-1172.4814948132
 10
827.2176318804
 20
-1170.7439106591
 10
820.8628683853
 20
-1168.6912941066
 10
814.663689472
 20
-1166.3255921869
 10
808.6259754373
 20
-1163.6490489115
 10
802.7554534186
 20
-1160.6642031439
 10
797.0576919616
 20
-1157.373886191
 10
791.5380957383
 20
-1153.7812191178
 10
786.20190042
 20
-1149.8896097866
 10
781.0541677112
 20
-1145.7027496247
 10
776.0997805482
 20
-1141.2246101224
 10
771.3434384673
 20
-1136.4594390664
 10
766.7896531471
 20
-1131.41175651
 10
762.4427441287
 20
-1126.0863504859
 10
758.3068347188
 20
-1120.4882724644
 10
757.4591604036
 20
-1119.2693534248
  0
LWPOLYLINE
  5
BC
330
1F
100
AcDbEntity
  8
0
  6
Continuous
 62
     7
370
    25
100
AcDbPolyline
 90
      201
 70
   128
 43
0.0
 10
677.2931861101
 20
-950.8837571727
 10
677.4170507617
 20
-941.7071524459
 10
677.788522477
 20
-932.3965928375
 10
678.4072346582
 20
-922.9612667456
 10
679.2725767112
 20
-913.410485698
 10
680.3836946478
 20
-903.7536751625
 10
681.7394919288
 20
-894.0003652452
 10
683.3386305459
 20
-884.1601812855
 10
685.1795323424
 20
-874.242834357
 10
687.2603805705
 20
-864.2581116836
 10
689.5791216841
 20
-854.2158669813
 10
692.1334673658
 20
-844.1260107331
 10
694.9208967847
 20
-833.9985004089
 10
697.9386590846
 20
-823.8433306388
 10
701.1837760984
 20
-813.6705233493
 10
704.6530452874
 20
-803.490117873
 10
708.3430429017
 20
-793.312161041
 10
712.2501273592
 20
-783.1466972679
 10
716.3704428393
 20
-773.0037586391
 10
720.699923088
 20
-762.8933550105
 10
725.234295431
 20
-752.8254641299
 10
729.9690849903
 20
-742.81002179
 10
734.8996191002
 20
-732.8569120232
 10
740.0210319188
 20
-722.9759573472
 10
745.32826923
 20
-713.1769090714
 10
750.8160934313
 20
-703.4694376734
 10
756.4790887028
 20
-693.8631232553
 10
762.3116663517
 20
-684.3674460898
 10
768.3080703283
 20
-674.9917772638
 10
774.4623829057
 20
-665.7453694305
 10
780.7685305203
 20
-656.6373476781
 10
787.2202897659
 20
-647.6767005244
 10
793.8112935351
 20
-638.8722710463
 10
800.5350373027
 20
-630.2327481528
 10
807.3848855456
 20
-621.7666580099
 10
814.3540782905
 20
-613.4823556265
 10
821.4357377855
 20
-605.3880166088
 10
828.6228752877
 20
-597.4916290921
 10
835.9083979601
 20
-589.8009858577
 10
843.2851158714
 20
-582.3236766419
 10
850.7457490916
 20
-575.0670806462
 10
858.2829348766
 20
-568.0383592546
 10
865.8892349338
 20
-561.2444489667
 10
873.5571427635
 20
-554.6920545515
 10
881.2790910663
 20
-548.3876424315
 10
889.0474592117
 20
-542.3374343001
 10
896.854580758
 20
-536.5474009823
 10
904.692751019
 20
-531.023256542
 10
912.5542346669
 20
-525.7704526429
 10
920.4312733664
 20
-520.7941731681
 10
928.3160934313
 20
-516.0993291047
 10
936.2009134963
 20
-511.6905536971
 10
944.0779521958
 20
-507.5721978742
 10
951.9394358436
 20
-503.748325956
 10
959.7776061046
 20
-500.2227116425
 10
967.584727651
 20
-496.9988342893
 10
975.3530957963
 20
-494.0798754742
 10
983.0750440991
 20
-491.4687158571
 10
990.7429519288
 20
-489.1679323372
 10
998.349251986
 20
-487.1797955102
 10
1005.886437771
 20
-485.5062674271
 10
1013.3470709912
 20
-484.148999658
 10
1020.7237889025
 20
-483.1093316624
 10
1028.0093115749
 20
-482.388289467
 10
1035.1964490772
 20
-481.9865846534
 10
1042.2781085722
 20
-481.9046136559
 10
1049.247301317
 20
-482.1424573698
 10
1056.0971495599
 20
-482.6998810722
 10
1062.8208933276
 20
-483.5763346531
 10
1069.4118970967
 20
-484.7709531587
 10
1075.8636563423
 20
-486.2825576447
 10
1082.169803957
 20
-488.10965634
 10
1088.3241165343
 20
-490.2504461189
 10
1094.3205205109
 20
-492.7028142801
 10
1100.1530981599
 20
-495.4643406326
 10
1105.8160934313
 20
-498.532299883
 10
1111.3039176326
 20
-501.9036643261
 10
1116.6111549438
 20
-505.5751068322
 10
1121.7325677624
 20
-509.5430041307
 10
1126.6631018723
 20
-513.8034403862
 10
1131.3978914316
 20
-518.3522110623
 10
1135.9322637746
 20
-523.1848270716
 10
1140.2617440233
 20
-528.2965192056
 10
1144.3820595034
 20
-533.6822428413
 10
1148.2891439609
 20
-539.3366829196
 10
1151.9791415753
 20
-545.2542591908
 10
1155.4484107642
 20
-551.4291317217
 10
1158.693527778
 20
-557.8552066586
 10
1161.7112900779
 20
-564.5261422412
 10
1164.4987194968
 20
-571.4353550616
 10
1167.0530651785
 20
-578.5760265609
 10
1169.3718062922
 20
-585.9411097585
 10
1171.4526545202
 20
-593.5233362063
 10
1173.2935563167
 20
-601.3152231623
 10
1174.8926949338
 20
-609.3090809748
 10
1176.2484922148
 20
-617.4970206713
 10
1177.3596101514
 20
-625.8709617438
 10
1178.2249522044
 20
-634.4226401235
 10
1178.8436643857
 20
-643.1436163363
 10
1179.215136101
 20
-652.0252838315
 10
1179.3390007525
 20
-661.0588774756
 10
1179.215136101
 20
-670.2354822024
 10
1178.8436643857
 20
-679.5460418109
 10
1178.2249522044
 20
-688.9813679028
 10
1177.3596101514
 20
-698.5321489503
 10
1176.2484922148
 20
-708.1889594858
 10
1174.8926949338
 20
-717.9422694031
 10
1173.2935563167
 20
-727.7824533628
 10
1171.4526545202
 20
-737.6998002914
 10
1169.3718062922
 20
-747.6845229647
 10
1167.0530651785
 20
-757.7267676671
 10
1164.4987194968
 20
-767.8166239153
 10
1161.7112900779
 20
-777.9441342394
 10
1158.693527778
 20
-788.0993040095
 10
1155.4484107642
 20
-798.272111299
 10
1151.9791415753
 20
-808.4525167753
 10
1148.2891439609
 20
-818.6304736073
 10
1144.3820595034
 20
-828.7959373805
 10
1140.2617440233
 20
-838.9388760092
 10
1135.9322637746
 20
-849.0492796378
 10
1131.3978914316
 20
-859.1171705185
 10
1126.6631018723
 20
-869.1326128584
 10
1121.7325677624
 20
-879.0857226252
 10
1116.6111549438
 20
-888.9666773011
 10
1111.3039176326
 20
-898.7657255769
 10
1105.8160934313
 20
-908.473196975
 10
1100.1530981599
 20
-918.079511393
 10
1094.3205205109
 20
-927.5751885585
 10
1088.3241165343
 20
-936.9508573845
 10
1082.169803957
 20
-946.1972652178
 10
1075.8636563423
 20
-955.3052869703
 10
1069.4118970967
 20
-964.265934124
 10
1062.8208933276
 20
-973.070363602
 10
1056.0971495599
 20
-981.7098864955
 10
1049.247301317
 20
-990.1759766384
 10
1042.2781085721
 20
-998.4602790218
 10
1035.1964490771
 20
-1006.5546180396
 10
1028.0093115749
 20
-1014.4510055562
 10
1020.7237889025
 20
-1022.1416487906
 10
1013.3470709912
 20
-1029.6189580064
 10
1005.886437771
 20
-1036.8755540022
 10
998.349251986
 20
-1043.9042753937
 10
990.7429519288
 20
-1050.6981856817
 10
983.0750440991
 20
-1057.2505800968
 10
975.3530957963
 20
-1063.5549922169
 10
967.584727651
 20
-1069.6052003483
 10
959.7776061046
 20
-1075.395233666
 10
951.9394358436
 20
-1080.9193781063
 10
944.0779521958
 20
-1086.1721820055
 10
936.2009134963
 20
-1091.1484614803
 10
928.3160934313
 20
-1095.8433055436
 10
920.4312733664
 20
-1100.2520809513
 10
912.5542346669
 20
-1104.3704367742
 10
904.692751019
 20
-1108.1943086923
 10
896.854580758
 20
-1111.7199230058
 10
889.0474592117
 20
-1114.943800359
 10
881.2790910663
 20
-1117.8627591741
 10
873.5571427635
 20
-1120.4739187913
 10
865.8892349338
 20
-1122.7747023111
 10
858.2829348766
 20
-1124.7628391381
 10
850.7457490916
 20
-1126.4363672212
 10
843.2851158714
 20
-1127.7936349903
 10
835.9083979601
 20
-1128.833302986
 10
828.6228752877
 20
-1129.5543451814
 10
821.4357377855
 20
-1129.9560499949
 10
814.3540782905
 20
-1130.0380209925
 10
807.3848855456
 20
-1129.8001772785
 10
800.5350373027
 20
-1129.2427535762
 10
793.8112935351
 20
-1128.3662999953
 10
787.2202897659
 20
-1127.1716814897
 10
780.7685305203
 20
-1125.6600770036
 10
774.4623829057
 20
-1123.8329783083
 10
768.3080703283
 20
-1121.6921885295
 10
762.3116663517
 20
-1119.2398203682
 10
756.4790887028
 20
-1116.4782940158
 10
750.8160934313
 20
-1113.4103347653
 10
745.32826923
 20
-1110.0389703223
 10
740.0210319188
 20
-1106.3675278162
 10
734.8996191002
 20
-1102.3996305176
 10
729.9690849903
 20
-1098.1391942622
 10
725.234295431
 20
-1093.5904235861
 10
720.699923088
 20
-1088.7578075767
 10
716.3704428393
 20
-1083.6461154427
 10
712.2501273592
 20
-1078.2603918071
 10
708.3430429017
 20
-1072.6059517288
 10
704.6530452874
 20
-1066.6883754575
 10
701.1837760984
 20
-1060.5135029266
 10
697.9386590846
 20
-1054.0874279898
 10
694.9208967847
 20
-1047.4164924071
 10
692.1334673658
 20
-1040.5072795867
 10
689.5791216841
 20
-1033.3666080874
 10
687.2603805705
 20
-1026.0015248899
 10
685.1795323424
 20
-1018.4192984421
 10
683.3386305459
 20
-1010.627411486
 10
681.7394919288
 20
-1002.6335536735
 10
680.3836946478
 20
-994.445613977
 10
679.2725767112
 20
-986.0716729045
 10
678.4072346582
 20
-977.5199945248
 10
677.788522477
 20
-968.799018312
 10
677.4170507617
 20
-959.9173508168
 10
677.2931861101
 20
-950.8837571727
  0
LWPOLYLINE
  5
BD
330
1F
100
AcDbEntity
  8
0
  6
Continuous
 62
     7
370
    25
100
AcDbPolyline
 90
      188
 70
   128
 43
0.0
 10
707.062381598
 20
-933.6983664188
 10
707.1872625598
 20
-925.0432566012
 10
707.5617644733
 20
-916.2537326021
 10
708.1854645827
 20
-907.3397164625
 10
709.057658825
 20
-898.3112707563
 10
710.1773626251
 20
-889.1785872311
 10
711.5433120069
 20
-879.951975303
 10
713.1539650206
 20
-870.6418504192
 10
715.0075034829
 20
-861.2587223003
 10
717.1018350296
 20
-851.8131830765
 10
719.4345954778
 20
-842.3158953308
 10
722.0031514942
 20
-832.7775800623
 10
724.8046035681
 20
-823.2090045839
 10
727.8357892847
 20
-813.620970368
 10
731.0932868944
 20
-804.0243008525
 10
734.5734191759
 20
-794.4298292237
 10
738.2722575871
 20
-784.8483861866
 10
742.1856266996
 20
-775.2907877389
 10
746.3091089126
 20
-765.7678229614
 10
750.6380494393
 20
-756.2902418387
 10
755.1675615617
 20
-746.8687431241
 10
759.8925321467
 20
-737.5139622625
 10
764.8076274184
 20
-728.2364593843
 10
769.9072989786
 20
-719.0467073849
 10
775.1857900709
 20
-709.9550801021
 10
780.6371420783
 20
-700.9718406059
 10
786.2552012503
 20
-692.1071296127
 10
792.033625649
 20
-683.3709540385
 10
797.9658923089
 20
-674.773175702
 10
804.0453045993
 20
-666.3235001925
 10
810.2649997849
 20
-658.0314659137
 10
816.6179567719
 20
-649.906433316
 10
823.0970040343
 20
-641.9575743305
 10
829.6948277093
 20
-634.1938620149
 10
836.4039798534
 20
-626.6240604241
 10
843.2168868502
 20
-619.2567147174
 10
850.1258579597
 20
-612.1001415122
 10
857.1230940002
 20
-605.1624194954
 10
864.2006961523
 20
-598.4513803042
 10
871.3506748751
 20
-591.9745996852
 10
878.564958926
 20
-585.7393889426
 10
885.8354044711
 20
-579.7527866847
 10
893.1538042787
 20
-574.0215508787
 10
900.5118969841
 20
-568.5521512214
 10
907.9013764153
 20
-563.3507618366
 10
915.3139009694
 20
-558.423254305
 10
922.7411030292
 20
-553.7751910361
 10
930.1745984086
 20
-549.4118189892
 10
937.6059958174
 20
-545.3380637504
 10
945.0269063337
 20
-541.5585239721
 10
952.4289528737
 20
-538.0774661823
 10
959.8037796482
 20
-534.8988199678
 10
967.143061595
 20
-532.0261735388
 10
974.4385137765
 20
-529.4627696778
 10
981.6819007324
 20
-527.2115020795
 10
988.8650457762
 20
-525.2749120839
 10
995.9798402251
 20
-523.6551858079
 10
1003.0182525541
 20
-522.354151677
 10
1009.9723374619
 20
-521.3732783616
 10
1016.8342448402
 20
-520.7136731192
 10
1023.5962286348
 20
-520.3760805441
 10
1030.2506555906
 20
-520.3608817271
 10
1036.7900138676
 20
-520.6680938256
 10
1043.2069215207
 20
-521.2973700435
 10
1049.4941348336
 20
-522.2480000233
 10
1055.6445564946
 20
-523.5189106478
 10
1061.6512436095
 20
-525.1086672514
 10
1067.5074155385
 20
-527.0154752398
 10
1073.2064615506
 20
-529.2371821155
 10
1078.7419482861
 20
-531.7712799081
 10
1084.1076270192
 20
-534.614908005
 10
1089.2974407113
 20
-537.764856381
 10
1094.305530849
 20
-541.2175692214
 10
1099.1262440572
 20
-544.9691489366
 10
1103.754138481
 20
-549.0153605612
 10
1108.1839899285
 20
-553.3516365355
 10
1112.4107977687
 20
-557.9730818606
 10
1116.4297905757
 20
-562.8744796249
 10
1120.2364315156
 20
-568.0502968928
 10
1123.8264234673
 20
-573.4946909507
 10
1127.1957138737
 20
-579.2015159025
 10
1130.3404993165
 20
-585.1643296072
 10
1133.2572298092
 20
-591.3764009516
 10
1135.9426128049
 20
-597.8307174482
 10
1138.3936169131
 20
-604.5199931512
 10
1140.6074753215
 20
-611.4366768819
 10
1142.5816889191
 20
-618.5729607521
 10
1144.3140291181
 20
-625.9207889784
 10
1145.8025403686
 20
-633.4718669757
 10
1147.0455423671
 20
-641.2176707209
 10
1148.0416319525
 20
-649.1494563751
 10
1148.7896846905
 20
-657.2582701537
 10
1149.2888561431
 20
-665.5349584344
 10
1149.5385828212
 20
-673.9701780899
 10
1149.5385828212
 20
-682.554407035
 10
1149.2888561431
 20
-691.2779549758
 10
1148.7896846905
 20
-700.130974348
 10
1148.0416319525
 20
-709.103471434
 10
1147.0455423671
 20
-718.1853176437
 10
1145.8025403686
 20
-727.3662609485
 10
1144.3140291181
 20
-736.6359374543
 10
1142.5816889191
 20
-745.9838831006
 10
1140.6074753215
 20
-755.3995454727
 10
1138.3936169131
 20
-764.8722957143
 10
1135.9426128049
 20
-774.3914405252
 10
1133.2572298092
 20
-783.9462342331
 10
1130.3404993165
 20
-793.5258909233
 10
1127.1957138737
 20
-803.1195966146
 10
1123.8264234673
 20
-812.7165214666
 10
1120.2364315156
 20
-822.3058320049
 10
1116.4297905757
 20
-831.8767033506
 10
1112.4107977687
 20
-841.4183314398
 10
1108.1839899285
 20
-850.9199452198
 10
1103.754138481
 20
-860.3708188082
 10
1099.1262440572
 20
-869.7602836001
 10
1094.305530849
 20
-879.0777403124
 10
1089.2974407113
 20
-888.3126709479
 10
1084.1076270192
 20
-897.4546506688
 10
1078.7419482861
 20
-906.493359565
 10
1073.2064615506
 20
-915.4185943033
 10
1067.5074155385
 20
-924.2202796458
 10
1061.6512436095
 20
-932.888479823
 10
1055.6445564946
 20
-941.4134097502
 10
1049.4941348336
 20
-949.7854460728
 10
1043.2069215207
 20
-957.9951380301
 10
1036.7900138675
 20
-966.0332181236
 10
1030.2506555906
 20
-973.8906125784
 10
1023.5962286348
 20
-981.5584515866
 10
1016.8342448402
 20
-989.0280793195
 10
1009.9723374619
 20
-996.2910636988
 10
1003.0182525541
 20
-1003.3392059156
 10
995.9798402251
 20
-1010.164549685
 10
988.8650457762
 20
-1016.7593902277
 10
981.6819007324
 20
-1023.116282968
 10
974.4385137765
 20
-1029.2280519367
 10
967.143061595
 20
-1035.0877978727
 10
959.8037796482
 20
-1040.6889060105
 10
952.4289528737
 20
-1046.0250535474
 10
945.0269063337
 20
-1051.0902167812
 10
937.6059958174
 20
-1055.8786779101
 10
930.1745984086
 20
-1060.3850314867
 10
922.7411030292
 20
-1064.6041905205
 10
915.3139009694
 20
-1068.5313922201
 10
907.9013764153
 20
-1072.1622033698
 10
900.5118969841
 20
-1075.4925253337
 10
893.1538042787
 20
-1078.5185986829
 10
885.8354044711
 20
-1081.2370074389
 10
878.564958926
 20
-1083.6446829302
 10
871.3506748751
 20
-1085.7389072557
 10
864.2006961523
 20
-1087.5173163535
 10
857.1230940002
 20
-1088.9779026691
 10
850.1258579597
 20
-1090.1190174218
 10
843.2168868502
 20
-1090.939372466
 10
836.4039798534
 20
-1091.438041745
 10
829.6948277093
 20
-1091.6144623368
 10
823.0970040343
 20
-1091.4684350892
 10
816.6179567719
 20
-1091.000124845
 10
810.2649997849
 20
-1090.2100602553
 10
804.0453045993
 20
-1089.0991331836
 10
797.9658923089
 20
-1087.6685976981
 10
792.033625649
 20
-1085.9200686566
 10
786.2552012503
 20
-1083.8555198837
 10
780.6371420783
 20
-1081.477281942
 10
775.1857900709
 20
-1078.788039502
 10
769.9072989786
 20
-1075.7908283111
 10
764.8076274184
 20
-1072.4890317665
 10
759.8925321467
 20
-1068.8863770964
 10
755.1675615617
 20
-1064.9869311522
 10
750.6380494393
 20
-1060.7950958176
 10
746.3091089126
 20
-1056.3156030398
 10
742.1856266996
 20
-1051.5535094874
 10
738.2722575871
 20
-1046.5141908427
 10
734.5734191759
 20
-1041.203335733
 10
731.0932868944
 20
-1035.6269393093
 10
727.8357892847
 20
-1029.7912964784
 10
724.8046035681
 20
-1023.7029947969
 10
722.0031514942
 20
-1017.3689070351
 10
719.4345954778
 20
-1010.7961834187
 10
717.1018350296
 20
-1003.9922435569
 10
715.0075034829
 20
-996.9647680671
 10
713.1539650206
 20
-989.7216899045
 10
711.5433120069
 20
-982.2711854072
 10
710.1773626251
 20
-974.621665066
 10
709.057658825
 20
-966.7817640307
 10
708.1854645827
 20
-958.7603323618
 10
707.5617644733
 20
-950.5664250406
 10
707.1872625598
 20
-942.2092917471
 10
707.062381598
 20
-933.6983664188
  0
LWPOLYLINE
  5
BE
330
1F
100
AcDbEntity
  8
0
  6
Continuous
 62
     7
370
    25
100
AcDbPolyline
 90
      102
 70
   128
 43
0.0
 10
1134.0859397217
 20
-514.8521334155
 10
1134.1003646788
 20
-514.8604621194
 10
1139.5881888801
 20
-518.2318265625
 10
1144.8954261912
 20
-521.9032690686
 10
1150.0168390099
 20
-525.8711663672
 10
1154.9473731198
 20
-530.1316026226
 10
1159.6821626791
 20
-534.6803732987
 10
1164.2165350221
 20
-539.5129893081
 10
1168.5460152708
 20
-544.6246814421
 10
1172.6663307509
 20
-550.0104050777
 10
1176.5734152084
 20
-555.664845156
 10
1180.2634128227
 20
-561.5824214273
 10
1183.7326820117
 20
-567.7572939582
 10
1186.9777990255
 20
-574.183368895
 10
1189.9955613254
 20
-580.8543044777
 10
1192.7829907443
 20
-587.7635172981
 10
1195.337336426
 20
-594.9041887974
 10
1197.6560775396
 20
-602.2692719949
 10
1199.7369257677
 20
-609.8514984427
 10
1201.5778275642
 20
-617.6433853988
 10
1203.1769661813
 20
-625.6372432113
 10
1204.5327634622
 20
-633.8251829078
 10
1205.6438813989
 20
-642.1991239803
 10
1206.5092234519
 20
-650.75080236
 10
1207.1279356331
 20
-659.4717785727
 10
1207.4994073484
 20
-668.353446068
 10
1207.623272
 20
-677.3870397121
 10
1207.4994073484
 20
-686.5636444389
 10
1207.1279356331
 20
-695.8742040473
 10
1206.5092234519
 20
-705.3095301392
 10
1205.6438813989
 20
-714.8603111868
 10
1204.5327634622
 20
-724.5171217223
 10
1203.1769661813
 20
-734.2704316396
 10
1201.5778275642
 20
-744.1106155993
 10
1199.7369257677
 20
-754.0279625278
 10
1197.6560775396
 20
-764.0126852012
 10
1195.337336426
 20
-774.0549299035
 10
1192.7829907443
 20
-784.1447861517
 10
1189.9955613254
 20
-794.2722964759
 10
1186.9777990255
 20
-804.4274662459
 10
1183.7326820117
 20
-814.6002735355
 10
1180.2634128227
 20
-824.7806790118
 10
1176.5734152084
 20
-834.9586358438
 10
1172.6663307509
 20
-845.1240996169
 10
1168.5460152708
 20
-855.2670382457
 10
1164.2165350221
 20
-865.3774418743
 10
1159.6821626791
 20
-875.4453327549
 10
1154.9473731198
 20
-885.4607750948
 10
1150.0168390099
 20
-895.4138848616
 10
1144.8954261912
 20
-905.2948395376
 10
1139.5881888801
 20
-915.0938878134
 10
1134.1003646788
 20
-924.8013592114
 10
1128.4373694073
 20
-934.4076736295
 10
1122.6047917583
 20
-943.903350795
 10
1116.6083877818
 20
-953.279019621
 10
1110.4540752044
 20
-962.5254274543
 10
1104.1479275898
 20
-971.6334492067
 10
1097.6961683442
 20
-980.5940963604
 10
1091.105164575
 20
-989.3985258385
 10
1084.3814208073
 20
-998.038048732
 10
1077.5315725645
 20
-1006.5041388748
 10
1070.5623798196
 20
-1014.7884412583
 10
1063.4807203246
 20
-1022.882780276
 10
1056.2935828224
 20
-1030.7791677926
 10
1049.00806015
 20
-1038.4698110271
 10
1041.6313422387
 20
-1045.9471202429
 10
1034.1707090184
 20
-1053.2037162386
 10
1026.6335232335
 20
-1060.2324376302
 10
1019.0272231763
 20
-1067.0263479181
 10
1011.3593153466
 20
-1073.5787423333
 10
1003.6373670438
 20
-1079.8831544533
 10
995.8689988984
 20
-1085.9333625847
 10
988.0618773521
 20
-1091.7233959025
 10
980.2237070911
 20
-1097.2475403428
 10
972.3622234432
 20
-1102.5003442419
 10
964.4851847437
 20
-1107.4766237167
 10
956.6003646788
 20
-1112.1714677801
 10
948.7155446138
 20
-1116.5802431877
 10
940.8385059143
 20
-1120.6985990106
 10
932.9770222665
 20
-1124.5224709288
 10
925.1388520055
 20
-1128.0480852423
 10
917.3317304591
 20
-1131.2719625955
 10
909.5633623138
 20
-1134.1909214106
 10
901.8414140109
 20
-1136.8020810277
 10
894.1735061813
 20
-1139.1028645476
 10
886.567206124
 20
-1141.0910013746
 10
879.0300203391
 20
-1142.7645294577
 10
871.5693871189
 20
-1144.1217972268
 10
864.1926692075
 20
-1145.1614652224
 10
856.9071465351
 20
-1145.8825074178
 10
849.7200090329
 20
-1146.2842122314
 10
842.6383495379
 20
-1146.3661832289
 10
835.6691567931
 20
-1146.128339515
 10
828.8193085502
 20
-1145.5709158126
 10
822.0955647825
 20
-1144.6944622317
 10
815.5045610134
 20
-1143.4998437261
 10
809.0528017678
 20
-1141.9882392401
 10
802.7466541531
 20
-1140.1611405448
 10
796.5923415758
 20
-1138.0203507659
 10
790.5959375992
 20
-1135.5679826047
 10
784.7633599502
 20
-1132.8064562522
 10
779.1147896359
 20
-1129.7468257058
  0
LWPOLYLINE
  5
BF
330
1F
100
AcDbEntity
  8
0
  6
Continuous
 62
     7
370
    25
100
AcDbPolyline
 90
       64
 70
   128
 43
0.0
 10
783.3592032881
 20
-977.7435840517
 10
783.4840842498
 20
-969.088474234
 10
783.8585861633
 20
-960.2989502349
 10
784.4822862727
 20
-951.3849340953
 10
785.354480515
 20
-942.3564883891
 10
786.4741843151
 20
-933.2238048639
 10
787.8401336969
 20
-923.9971929358
 10
789.4507867106
 20
-914.687068052
 10
791.3043251729
 20
-905.3039399331
 10
793.3986567197
 20
-895.8584007094
 10
795.7314171678
 20
-886.3611129637
 10
798.2999731842
 20
-876.8227976951
 10
801.1014252582
 20
-867.2542222168
 10
804.1326109748
 20
-857.6661880008
 10
807.3901085845
 20
-848.0695184854
 10
810.870240866
 20
-838.4750468566
 10
814.5690792771
 20
-828.8936038195
 10
818.4824483896
 20
-819.3360053718
 10
822.6059306026
 20
-809.8130405942
 10
826.9348711293
 20
-800.3354594715
 10
831.4643832517
 20
-790.9139607569
 10
836.1893538367
 20
-781.5591798953
 10
841.1044491084
 20
-772.2816770172
 10
846.2041206687
 20
-763.0919250177
 10
851.4826117609
 20
-754.0002977349
 10
856.9339637683
 20
-745.0170582387
 10
862.5520229403
 20
-736.1523472456
 10
868.3304473391
 20
-727.4161716714
 10
874.2627139989
 20
-718.8183933349
 10
880.3421262893
 20
-710.3687178254
 10
886.5618214749
 20
-702.0766835465
 10
892.9147784619
 20
-693.9516509489
 10
899.3938257243
 20
-686.0027919634
 10
905.9916493993
 20
-678.2390796477
 10
912.7008015434
 20
-670.6692780569
 10
919.5137085402
 20
-663.3019323503
 10
926.4226796497
 20
-656.145359145
 10
933.4199156902
 20
-649.2076371282
 10
940.4975178423
 20
-642.496597937
 10
947.6474965652
 20
-636.019817318
 10
954.8617806161
 20
-629.7846065754
 10
962.1322261611
 20
-623.7980043176
 10
969.4506259687
 20
-618.0667685115
 10
976.8087186741
 20
-612.5973688543
 10
984.1981981053
 20
-607.3959794695
 10
991.6107226595
 20
-602.4684719379
 10
999.0379247192
 20
-597.820408669
 10
1006.4714200986
 20
-593.457036622
 10
1013.9028175074
 20
-589.3832813832
 10
1021.3237280237
 20
-585.6037416049
 10
1028.7257745637
 20
-582.1226838151
 10
1036.1006013383
 20
-578.9440376007
 10
1043.439883285
 20
-576.0713911716
 10
1050.7353354665
 20
-573.5079873106
 10
1057.9787224225
 20
-571.2567197123
 10
1065.1618674662
 20
-569.3201297168
 10
1072.2766619151
 20
-567.7004034408
 10
1079.3150742442
 20
-566.3993693098
 10
1086.269159152
 20
-565.4184959945
 10
1093.1310665302
 20
-564.758890752
 10
1099.8930503249
 20
-564.4212981769
 10
1106.5474772807
 20
-564.40609936
 10
1113.0868355576
 20
-564.7133114584
 10
1118.1806737891
 20
-565.1853363568
  0
LWPOLYLINE
  5
C0
330
1F
100
AcDbEntity
  8
0
  6
Continuous
 62
     7
370
    25
100
AcDbPolyline
 90
       18
 70
   128
 43
0.0
 10
814.7483347636
 20
-1090.8025159244
 10
814.5690792771
 20
-1090.5594084755
 10
810.870240866
 20
-1085.2485533659
 10
807.3901085845
 20
-1079.6721569422
 10
804.1326109748
 20
-1073.8365141112
 10
801.1014252582
 20
-1067.7482124297
 10
798.2999731842
 20
-1061.414124668
 10
795.7314171678
 20
-1054.8414010516
 10
793.3986567197
 20
-1048.0374611898
 10
791.3043251729
 20
-1041.0099856999
 10
789.4507867106
 20
-1033.7669075373
 10
787.8401336969
 20
-1026.31640304
 10
786.4741843151
 20
-1018.6668826989
 10
785.354480515
 20
-1010.8269816635
 10
784.4822862727
 20
-1002.8055499946
 10
783.8585861633
 20
-994.6116426734
 10
783.4840842498
 20
-986.2545093799
 10
783.3592032881
 20
-977.7435840517
  0
LWPOLYLINE
  5
C1
330
1F
100
AcDbEntity
  8
0
  6
Continuous
 62
     7
370
    25
100
AcDbPolyline
 90
       48
 70
   128
 43
0.0
 10
783.492498098
 20
-986.5339952858
 10
783.8559834273
 20
-977.7931478727
 10
784.4764701219
 20
-968.605030065
 10
785.3442401763
 20
-959.3019914101
 10
786.4583834195
 20
-949.8937895107
 10
787.8177312692
 20
-940.3902922714
 10
789.420857957
 20
-930.8014675486
 10
791.2660820246
 20
-921.1373726953
 10
793.3514680867
 20
-911.4081440123
 10
795.6748288612
 20
-901.6239861171
 10
798.2337274636
 20
-891.7951612403
 10
801.0254799626
 20
-881.9319784617
 10
804.0471581952
 20
-872.0447828982
 10
807.2955928385
 20
-862.1439448526
 10
810.7673767328
 20
-852.2398489367
 10
814.4588684565
 20
-842.3428831795
 10
818.3661961444
 20
-832.4634281314
 10
822.4852615493
 20
-822.6118459765
 10
826.8117443404
 20
-812.798469664
 10
831.3411066348
 20
-803.0335920706
 10
836.0685977569
 20
-793.3274552044
 10
840.9892592213
 20
-783.6902394627
 10
846.0979299336
 20
-774.1320529539
 10
851.3892516037
 20
-764.6629208958
 10
856.8576743658
 20
-755.2927751003
 10
862.4974625997
 20
-746.0314435565
 10
868.3027009462
 20
-736.8886401222
 10
874.2673005121
 20
-727.8739543356
 10
880.3850052559
 20
-718.9968413574
 10
886.6493985503
 20
-710.2666120532
 10
893.0539099116
 20
-701.6924232279
 10
899.591821892
 20
-693.2832680217
 10
906.2562771246
 20
-685.0479664771
 10
913.0402855161
 20
-676.9951562881
 10
919.9367315785
 20
-669.1332837407
 10
926.9383818923
 20
-661.4705948536
 10
934.0378926931
 20
-654.0151267292
 10
941.2278175745
 20
-646.774699124
 10
948.5006152982
 20
-639.7569062467
 10
955.8486577036
 20
-632.9691087931
 10
963.264237709
 20
-626.4184262252
 10
970.739577395
 20
-620.1117293046
 10
978.2668361624
 20
-614.0556328853
 10
985.8381189564
 20
-608.2564889763
 10
993.4454845468
 20
-602.7203800787
 10
1001.0809538575
 20
-597.4531128061
 10
1008.7365183357
 20
-592.4602117948
 10
1012.2559203747
 20
-590.2611880055
  0
ENDSEC
  0
SECTION
  2
OBJECTS
  0
DICTIONARY
  5
C
330
0
100
AcDbDictionary
281
     1
  3
ACAD_GROUP
350
D
  3
ACAD_LAYOUT
350
1A
  3
ACAD_MLINESTYLE
350
17
  3
ACAD_PLOTSETTINGS
350
19
  3
ACAD_PLOTSTYLENAME
350
E
  3
ACAD_SCALELIST
350
47
  0
DICTIONARY
  5
D
102
{ACAD_REACTORS
330
C
102
}
330
C
100
AcDbDictionary
281
     1
  0
DICTIONARY
  5
1A
102
{ACAD_REACTORS
330
C
102
}
330
C
100
AcDbDictionary
281
     1
  3
Layout1
350
1E
  3
Layout2
350
26
  3
Model
350
22
  0
DICTIONARY
  5
17
102
{ACAD_REACTORS
330
C
102
}
330
C
100
AcDbDictionary
281
     1
  3
Standard
350
18
  0
DICTIONARY
  5
19
102
{ACAD_REACTORS
330
C
102
}
330
C
100
AcDbDictionary
281
     1
  0
ACDBDICTIONARYWDFLT
  5
E
102
{ACAD_REACTORS
330
C
102
}
330
C
100
AcDbDictionary
281
     1
  3
Normal
350
F
100
AcDbDictionaryWithDefault
340
F
  0
DICTIONARY
  5
47
102
{ACAD_REACTORS
330
C
102
}
330
C
100
AcDbDictionary
281
     1
  3
A0
350
48
  3
A1
350
49
  3
A2
350
4A
  3
A3
350
4B
  3
A4
350
4C
  3
A5
350
4D
  3
A6
350
4E
  3
A7
350
4F
  3
A8
350
50
  3
A9
350
51
  3
B0
350
52
  3
B1
350
53
  3
B2
350
54
  3
B3
350
55
  3
B4
350
56
  3
B5
350
57
  3
B6
350
58
  3
B7
350
59
  3
B8
350
5A
  3
B9
350
5B
  3
C0
350
5C
  3
C1
350
5D
  3
C2
350
5E
  3
C3
350
5F
  3
C4
350
60
  3
C5
350
61
  3
C6
350
62
  3
C7
350
63
  3
C8
350
64
  3
C9
350
65
  3
D0
350
66
  3
D1
350
67
  3
D2
350
68
  0
LAYOUT
  5
1E
102
{ACAD_REACTORS
330
1A
102
}
330
1A
100
AcDbPlotSettings
  1

  2
none_device
  4

  6

 40
0.0
 41
0.0
 42
0.0
 43
0.0
 44
0.0
 45
0.0
 46
0.0
 47
0.0
 48
0.0
 49
0.0
140
0.0
141
0.0
142
1.0
143
1.0
 70
   688
 72
     1
 73
     0
 74
     5
  7

 75
    16
147
1.0
148
0.0
149
0.0
100
AcDbLayout
  1
Layout1
 70
     1
 71
     1
 10
0.0
 20
0.0
 11
420.0
 21
297.0
 12
0.0
 22
0.0
 32
0.0
 14
1.0000000000E+20
 24
1.0000000000E+20
 34
1.0000000000E+20
 15
-1.0000000000E+20
 25
-1.0000000000E+20
 35
-1.0000000000E+20
146
0.0
 13
0.0
 23
0.0
 33
0.0
 16
1.0
 26
0.0
 36
0.0
 17
0.0
 27
1.0
 37
0.0
 76
     0
330
1B
  0
LAYOUT
  5
26
102
{ACAD_REACTORS
330
1A
102
}
330
1A
100
AcDbPlotSettings
  1

  2
none_device
  4

  6

 40
0.0
 41
0.0
 42
0.0
 43
0.0
 44
0.0
 45
0.0
 46
0.0
 47
0.0
 48
0.0
 49
0.0
140
0.0
141
0.0
142
1.0
143
1.0
 70
   688
 72
     1
 73
     0
 74
     5
  7

 75
    16
147
1.0
148
0.0
149
0.0
100
AcDbLayout
  1
Layout2
 70
     1
 71
     2
 10
0.0
 20
0.0
 11
0.0
 21
0.0
 12
0.0
 22
0.0
 32
0.0
 14
0.0
 24
0.0
 34
0.0
 15
0.0
 25
0.0
 35
0.0
146
0.0
 13
0.0
 23
0.0
 33
0.0
 16
1.0
 26
0.0
 36
0.0
 17
0.0
 27
1.0
 37
0.0
 76
     0
330
23
  0
LAYOUT
  5
22
102
{ACAD_REACTORS
330
1A
102
}
330
1A
100
AcDbPlotSettings
  1

  2
none_device
  4
Letter_(8.50_x_11.00_Inches)
  6

 40
6.35
 41
6.35
 42
6.35000508
 43
6.35000508
 44
215.9
 45
279.4
 46
0.0
 47
0.0
 48
0.0
 49
0.0
140
0.0
141
0.0
142
1.0
143
1.0
 70
  1712
 72
     1
 73
     0
 74
     0
  7

 75
     0
147
1.0
148
0.0
149
0.0
100
AcDbLayout
  1
Model
 70
     1
 71
     0
 10
0.0
 20
0.0
 11
279.4
 21
215.9
 12
0.0
 22
0.0
 32
0.0
 14
0.0
 24
0.0
 34
0.0
 15
279.4
 25
215.9
 35
0.0
146
0.0
 13
0.0
 23
0.0
 33
0.0
 16
1.0
 26
0.0
 36
0.0
 17
0.0
 27
1.0
 37
0.0
 76
     0
330
1F
331
29
  0
MLINESTYLE
  5
18
102
{ACAD_REACTORS
330
17
102
}
330
17
100
AcDbMlineStyle
  2
Standard
 70
     0
  3

 62
   256
 51
90.0
 52
90.0
 71
     2
 49
0.5
 62
   256
  6
BYLAYER
 49
-0.5
 62
   256
  6
BYLAYER
  0
ACDBPLACEHOLDER
  5
F
102
{ACAD_REACTORS
330
E
102
}
330
E
  0
SCALE
  5
48
102
{ACAD_REACTORS
330
47
102
}
330
47
100
AcDbScale
 70
     0
300
1:1
140
1.0
141
1.0
290
     1
  0
SCALE
  5
49
102
{ACAD_REACTORS
330
47
102
}
330
47
100
AcDbScale
 70
     0
300
1:2
140
1.0
141
2.0
290
     0
  0
SCALE
  5
4A
102
{ACAD_REACTORS
330
47
102
}
330
47
100
AcDbScale
 70
     0
300
1:4
140
1.0
141
4.0
290
     0
  0
SCALE
  5
4B
102
{ACAD_REACTORS
330
47
102
}
330
47
100
AcDbScale
 70
     0
300
1:5
140
1.0
141
5.0
290
     0
  0
SCALE
  5
4C
102
{ACAD_REACTORS
330
47
102
}
330
47
100
AcDbScale
 70
     0
300
1:8
140
1.0
141
8.0
290
     0
  0
SCALE
  5
4D
102
{ACAD_REACTORS
330
47
102
}
330
47
100
AcDbScale
 70
     0
300
1:10
140
1.0
141
10.0
290
     0
  0
SCALE
  5
4E
102
{ACAD_REACTORS
330
47
102
}
330
47
100
AcDbScale
 70
     0
300
1:16
140
1.0
141
16.0
290
     0
  0
SCALE
  5
4F
102
{ACAD_REACTORS
330
47
102
}
330
47
100
AcDbScale
 70
     0
300
1:20
140
1.0
141
20.0
290
     0
  0
SCALE
  5
50
102
{ACAD_REACTORS
330
47
102
}
330
47
100
AcDbScale
 70
     0
300
1:30
140
1.0
141
30.0
290
     0
  0
SCALE
  5
51
102
{ACAD_REACTORS
330
47
102
}
330
47
100
AcDbScale
 70
     0
300
1:40
140
1.0
141
40.0
290
     0
  0
SCALE
  5
52
102
{ACAD_REACTORS
330
47
102
}
330
47
100
AcDbScale
 70
     0
300
1:50
140
1.0
141
50.0
290
     0
  0
SCALE
  5
53
102
{ACAD_REACTORS
330
47
102
}
330
47
100
AcDbScale
 70
     0
300
1:100
140
1.0
141
100.0
290
     0
  0
SCALE
  5
54
102
{ACAD_REACTORS
330
47
102
}
330
47
100
AcDbScale
 70
     0
300
2:1
140
2.0
141
1.0
290
     0
  0
SCALE
  5
55
102
{ACAD_REACTORS
330
47
102
}
330
47
100
AcDbScale
 70
     0
300
4:1
140
4.0
141
1.0
290
     0
  0
SCALE
  5
56
102
{ACAD_REACTORS
330
47
102
}
330
47
100
AcDbScale
 70
     0
300
8:1
140
8.0
141
1.0
290
     0
  0
SCALE
  5
57
102
{ACAD_REACTORS
330
47
102
}
330
47
100
AcDbScale
 70
     0
300
10:1
140
10.0
141
1.0
290
     0
  0
SCALE
  5
58
102
{ACAD_REACTORS
330
47
102
}
330
47
100
AcDbScale
 70
     0
300
100:1
140
100.0
141
1.0
290
     0
  0
SCALE
  5
59
102
{ACAD_REACTORS
330
47
102
}
330
47
100
AcDbScale
 70
     0
300
1/128" = 1'-0"
140
0.0078125
141
12.0
290
     0
  0
SCALE
  5
5A
102
{ACAD_REACTORS
330
47
102
}
330
47
100
AcDbScale
 70
     0
300
1/64" = 1'-0"
140
0.015625
141
12.0
290
     0
  0
SCALE
  5
5B
102
{ACAD_REACTORS
330
47
102
}
330
47
100
AcDbScale
 70
     0
300
1/32" = 1'-0"
140
0.03125
141
12.0
290
     0
  0
SCALE
  5
5C
102
{ACAD_REACTORS
330
47
102
}
330
47
100
AcDbScale
 70
     0
300
1/16" = 1'-0"
140
0.0625
141
12.0
290
     0
  0
SCALE
  5
5D
102
{ACAD_REACTORS
330
47
102
}
330
47
100
AcDbScale
 70
     0
300
3/32" = 1'-0"
140
0.09375
141
12.0
290
     0
  0
SCALE
  5
5E
102
{ACAD_REACTORS
330
47
102
}
330
47
100
AcDbScale
 70
     0
300
1/8" = 1'-0"
140
0.125
141
12.0
290
     0
  0
SCALE
  5
5F
102
{ACAD_REACTORS
330
47
102
}
330
47
100
AcDbScale
 70
     0
300
3/16" = 1'-0"
140
0.1875
141
12.0
290
     0
  0
SCALE
  5
60
102
{ACAD_REACTORS
330
47
102
}
330
47
100
AcDbScale
 70
     0
300
1/4" = 1'-0"
140
0.25
141
12.0
290
     0
  0
SCALE
  5
61
102
{ACAD_REACTORS
330
47
102
}
330
47
100
AcDbScale
 70
     0
300
3/8" = 1'-0"
140
0.375
141
12.0
290
     0
  0
SCALE
  5
62
102
{ACAD_REACTORS
330
47
102
}
330
47
100
AcDbScale
 70
     0
300
1/2" = 1'-0"
140
0.5
141
12.0
290
     0
  0
SCALE
  5
63
102
{ACAD_REACTORS
330
47
102
}
330
47
100
AcDbScale
 70
     0
300
3/4" = 1'-0"
140
0.75
141
12.0
290
     0
  0
SCALE
  5
64
102
{ACAD_REACTORS
330
47
102
}
330
47
100
AcDbScale
 70
     0
300
1" = 1'-0"
140
1.0
141
12.0
290
     0
  0
SCALE
  5
65
102
{ACAD_REACTORS
330
47
102
}
330
47
100
AcDbScale
 70
     0
300
1-1/2" = 1'-0"
140
1.5
141
12.0
290
     0
  0
SCALE
  5
66
102
{ACAD_REACTORS
330
47
102
}
330
47
100
AcDbScale
 70
     0
300
3" = 1'-0"
140
3.0
141
12.0
290
     0
  0
SCALE
  5
67
102
{ACAD_REACTORS
330
47
102
}
330
47
100
AcDbScale
 70
     0
300
6" = 1'-0"
140
6.0
141
12.0
290
     0
  0
SCALE
  5
68
102
{ACAD_REACTORS
330
47
102
}
330
47
100
AcDbScale
 70
     0
300
1'-0" = 1'-0"
140
12.0
141
12.0
290
     0
  0
ENDSEC
  0
EOF
